Song name
# A B C D E F G H I J K L M N O P Q R S T U V W X Y Z

Artist Vs Poet - Stay tab

Artist Vs Poet - Stay

Verse: 
e|--------------------------------------------------------------|
B|---------3-----3------3---------------------------------------|
G|---------2-----2--------2----0h2-0-----7----6-----------------|
D|-------0-------0----0-----------0------0----0-----------------|
A|---0h2--------------------------------------------------------|
E|---------------2-------------3---------7----5-----------------|

Pre-Chorus:          
e|---x--------x--------------|
B|---3--------3--------------|
G|---2--------2--------------|
D|---0--------2--------------|
A|---2--------0--------------|
E|---x--------x--------------|

Chorus:
e|---------------------------------------|
B|---3-----3-----3-----3-----------------|
G|---2-----0-----2-----2-----------------|
D|---0-----0-----0-----2-----------------|
A|---x-----x-----2-----0-----------------|
E|---2-----3-----x-----x-----------------|

Bridge:
e|-------------------------------------|
B|---3-----3-----3---------3-----------|
G|---0-----0-----0---------0-----------|
D|---0-----2-----2---(4x)--0-----------|
A|---x-----x-----4---------3-----------|
E|---3-----2-----x---------x-----------|
Tap to rate this tab
# A B C D E F G H I J K L M N O P Q R S T U V W X Y Z