Song name
# A B C D E F G H I J K L M N O P Q R S T U V W X Y Z

Artist Vs Poet - Wait For You tab

Artist Vs Poet - Wait For You
Half Step-Down

Intro: 2x
Guitar 1
eb|-------10--------10--------10--------10----|
Bb|-----10--10----10--10----10--10----10--10--|
Gb|----------------------12--------11---------|
Db|--12--------11-----------------------------|
Ab|-------------------------------------------|
Eb|-------------------------------------------|

Guitar 2 2x
eb|---------------------|
Bb|------7-------5------|
Gb|----7---7---7---7----|
Db|--7-------7----------|
Ab|---------------------|
Eb|---------------------|

Verse: 4x
Guitar 1
eb|-------10--------10--------10--------10----|
Bb|-----10--10----10--10----10--10----10--10--|
Gb|----------------------12--------11---------|
Db|--12--------11-----------------------------|
Ab|-------------------------------------------|
Eb|-------------------------------------------|

Guitar 2 2x
eb|---------------------|
Bb|------7-------5------|
Gb|----7---7---7---7----|
Db|--7-------7----------|
Ab|---------------------|
Eb|---------------------|
 
Pre-Chorus: 
     Bm7  A    G
eb|---x----0----x----|
Bb|---3----3----3----|
Gb|---2----2----0----|
Db|---0----2----0----|
Ab|---2----0----x----|
Eb|---x----x----3----|

Chorus:
    D   D/C# D/F# G
eb|--x---x----x----x---|
Bb|--3---3----3----x---|
Gb|--2---2----2----0---|
Db|--0---0----0----0---|
Ab|--x---4----x----x---| 
Eb|--x---x----2----3---|

    D   D/C# D/F# G   Bm7  A
eb|--x---x----x----x---x----x---|
Bb|--3---3----3----x---3----3---|
Gb|--2---2----2----0---2----2---|
Db|--0---0----0----0---0----2---|
Ab|--x---4----x----x---2----0---| 
Eb|--x---x----2----3---x----x---|

Post-Chorus
     G  A  D
eb|---x--0--x---|
Bb|---3--3--3---|
Gb|---0--2--2---|
Db|---0--2--0---|
Ab|---x--0--x---|
Eb|---3--x--x---|

Verse, Pre-Chorus, and Chorus remain the same

Bridge
     G  D  A  Bm7
eb|---x--0--x--0---|
Bb|---3--3--3--3---|
Gb|---0--2--2--2---|
Db|---0--0--2--0---|
Ab|---x--x--0--2---|
Eb|---3--x--x--x---|

Finish with Chorus 3x

Tap to rate this tab
# A B C D E F G H I J K L M N O P Q R S T U V W X Y Z