Song name
# A B C D E F G H I J K L M N O P Q R S T U V W X Y Z

Arwen - Infinity tab

S - slide
H - hammer on
* - A.H, Artificial Harmonic
PS - pick slide
PM - palm mute
B - Bend

INTRO
E--------------------------------------------------------------------------------|
B--------------------------------------------------------------------------------|
G--------------------------------------------------------------------------------|
D---------5---------------------5--------------------5---------------------------|
A-5h7-x-x-5--5h7-x-x-5--5h7-x-x-5-5h7-x-x-6--5h7-x-x-5--5h7-x-x-5--5h7-x-x-8x8x8-|
E--------------------5--------------------6---------------------5----------6x6x6-|

E----------------------------------------------------------------------------------------|
B----------------------------------------------------------------------------------------|
G-----------------------------------------------------------------------------9-9-9-7-7--|
D---------5---------------------5--------------------5---------------------5--9-9-9-7----|
A-5h7-x-x-5--5h7-x-x-5--5h7-x-x-5-5h7-x-x-6--5h7-x-x-5--5h7-x-x-5--5h7-x-x-5--7-7-7-5----|
E--------------------5--------------------6---------------------5------------------------|

E--------------------------------------------------------------------------------|
B--------------------------------------------------------------------------------|
G--------------------------------------------------------------------------------|
D---------5---------------------5--------------------5---------------------------|
A-5h7-x-x-5--5h7-x-x-5--5h7-x-x-5-5h7-x-x-6--5h7-x-x-5--5h7-x-x-5--5h7-x-x-8x8x8-|
E--------------------5--------------------6---------------------5----------6x6x6-|
  PM PM PM PM PM PM PM PM
E---------------------------|------------------------------------------------------------|
B---------------------------|---------------------------------------------------------2--|
G-------------------------2*|------------------------------------------------------------|
D---------------------------|------------------------------------------------------------|
A---------------------------|------------------------------------------------------------|
E-3-2-0-3-2-0-3-2-0-3-2-0---|3-2-0-3-2-0-3-2-0-3-2-0-3-2-0-2|-3-2-0-3-2-0-3-2-0-3-2-0----|
The part below you play 4 times

E------------------------------------------------------------------------------|
B------------------------------------------------------------------------------|
G--------------------------------------------------------------3-3-3-5-5-5-777-|
D-------------------------------3-2-0-3-2-0-3-2-0-3-2-0-3-2-0--3-3-3-5-5-5-777-|
A-3-2-0-3-2-0-3-2-0-3-2-0-3-2-0--------------------------------1-1-1-3-3-3-555-|
E------------------------------------------------------------------------------|

E-----------------------------------------------------------------------------|
B-----------------------------------------------------------------------------|
G-7-7-7---------------------555-------777-7-7-7---------------------555-------|
D-7-7-7-888-8-8-8-555-5-5-5-555-7-7-7-777-7-7-7-888-8-8-8-555-5-5-5-555-7-7-7-|
A-5-5-5-888-8-8-8-555-5-5-5-333-7-7-7-555-5-5-5-888-8-8-8-555-5-5-5-333-7-7-7-|
E-------666-6-6-6-333-3-3-3-----5-5-5-----------666-6-6-6-333-3-3-3-----5-5-5-|

VERSE
  PM PM PM PM PM PM PM PM PM PM PM PM PM PM PM PM PM PM PM PM PM PM PM PM PM PM PM PM PM PM
E----------------------------------------------------------------------------------------------------|
B-------------------------------------------------------------------------------------------------8--|B
G-------------------------------------------------------------------------------------------8-9-11---|
D-777-7-7-7---------------------555-------777-7-7-7-----------------------------------8-9-11---------|
A-555-5-5-5-888-8-8-8-555-5-5-5-333-7-7-7-555-5-5-5-888-8-8-8-555-5-5-5--------8-10-11---------------|
E-----------666-6-6-6-333-3-3-3-----5-5-5-----------666-6-6-6-333-3-3-3-8-10-11----------------------|
Pre-Chorus
        PM PM PM PM PM PM PM PM
E------------------------------------------------|
B------------------------------------------------|
G-3--5--------------------------3-----2--3--5--7-|
D-3--5--22222-22222-22222-22222-3--5--2--3--5--7-|
A-1--3--00000-00000-00000-00000-1--5--0--1--3--5-|
E----------------------------------3-------------|
Chorus

E---------------------------------------------------------------------------------------|
B---------------------------------------------------------------------------------------|
G-5-5---7-7---4-4---5-5--5-5---7-7----------------------------555555-5------------5-5-5-|
D-5-5---7-7---4-4---5-5--5-5---7-7---3--2---5-5---7-7---4-4---555555-5---5--8-8-8-5-5-5-|
A-3-3---5-5---2-2---3-3--3-3---5-5---3--2---3-3---5-5---2-2---333333-3---5--8-8-8-3-3-3-|
E-------------------3-3--------------1--0---------------------333333-----3--6-6-6-------|
Verse
  PM PM PM PM PM PM PM PM PM PM PM PM PM PM PM PM PM PM PM PM PM PM PM PM PM PM PM PM PM PM
E----------------------------------------------------------------------------------------------------|
B-------------------------------------------------------------------------------------------------8--|B
G-------------------------------------------------------------------------------------------8-9-11---|
D-777-7-7-7---------------------555-------777-7-7-7-----------------------------------8-9-11---------|
A-555-5-5-5-888-8-8-8-555-5-5-5-333-7-7-7-555-5-5-5-888-8-8-8-555-5-5-5--------8-10-11---------------|
E-----------666-6-6-6-333-3-3-3-----5-5-5-----------666-6-6-6-333-3-3-3-8-10-11----------------------|
Pre-Chorus
        PM PM PM PM PM PM PM PM
E------------------------------------------------|
B------------------------------------------------|
G-3--5--------------------------3-----2--3--5--7-|
D-3--5--22222-22222-22222-22222-3--5--2--3--5--7-|
A-1--3--00000-00000-00000-00000-1--5--0--1--3--5-|
E----------------------------------3-------------|
Chorus

E---------------------------------------------------------------------------------------|
B---------------------------------------------------------------------------------------|
G-5-5---7-7---4-4---5-5--5-5---7-7----------------------------555555-5------------5-5-5-|
D-5-5---7-7---4-4---5-5--5-5---7-7---3--2---5-5---7-7---4-4---555555-5---5--8-8-8-5-5-5-|
A-3-3---5-5---2-2---3-3--3-3---5-5---3--2---3-3---5-5---2-2---333333-3---5--8-8-8-3-3-3-|
E-------------------3-3--------------1--0---------------------333333-----3--6-6-6-------|

E-----------------------------------------------------------------------|
B-----------------------------------------------------------------------|
G-777-------------------------------------------555--5-5-5-666--6-6-6-7-|
D-777--8-8-8-1010--7-7-7-888--8-8-8-555--5-5-5--555--5-5-5-666--6-6-6-7-| Let ring
A-555--8-8-8-1010--7-7-7-888--8-8-8-555--5-5-5--333--3-3-3-444--4-4-4-5-|
E------6-6-6-888---5-5-5-666--6-6-6-333--3-3-3--------------------------|

Keyboard solo
  PSPSPSPSPSPSPSPS
E-------------------23--|B
B-----------------------|
G-----------------------|
D-2423222120191817------|
A-2423222120191817------| <-pick slide them all
E-2423222120191817------|

E--------------------------------------------------------------------------------|
B--------------------------------------------------------------------------------|
G--------------------------------------------------------------------------------|
D---------5---------------------5--------------------5---------------------------|
A-5h7-x-x-5--5h7-x-x-5--5h7-x-x-5-5h7-x-x-6--5h7-x-x-5--5h7-x-x-5--5h7-x-x-8x8x8-|
E--------------------5--------------------6---------------------5----------6x6x6-|
The part between the lines 4 times
  PM PM PM PM PM PM PM PM
E-------------------------|---------------------------------------7-5---------|
B-------------------------|-------------------------------------------8-7-5-3-|
G-------------------------|--2*-----------------------------------------------|
D-------------------------|------9-9-9-9-99-9-9-9-9-99-9-9-9-9-99-------------|
A-------------------------|------9-9-9-9-99-9-9-9-9-99-9-9-9-9-99-------------|
E-|3-2-0-3-2-0-3-2-0-3-2-0|------7-7-7-7-77-7-7-7-7-77-7-7-7-7-77-------------|
Chorus

E---------------------------------------------------------------------------------------|
B---------------------------------------------------------------------------------------|
G-5-5---7-7---4-4---5-5--5-5---7-7----------------------------555555-5------------5-5-5-|
D-5-5---7-7---4-4---5-5--5-5---7-7---3--2---5-5---7-7---4-4---555555-5---5--8-8-8-5-5-5-|
A-3-3---5-5---2-2---3-3--3-3---5-5---3--2---3-3---5-5---2-2---333333-3---5--8-8-8-3-3-3-|
E-------------------3-3--------------1--0---------------------333333-----3--6-6-6-------|

E-----------------------------------------------------------------------------|
B-----------------------------------------------------------------------------|
G-7-7-7---------------------555-------777-7-7-7---------------------555-------|
D-7-7-7-888-8-8-8-555-5-5-5-555-7-7-7-777-7-7-7-888-8-8-8-555-5-5-5-555-7-7-7-|
A-5-5-5-888-8-8-8-555-5-5-5-333-7-7-7-555-5-5-5-888-8-8-8-555-5-5-5-333-7-7-7-|
E-------666-6-6-6-333-3-3-3-----5-5-5-----------666-6-6-6-333-3-3-3-----5-5-5-|


That's it, arwen rocks, keep rockin', and enjoy!, Eldad.

Official arwen website - http://www.arwenmetal.com/index.php.
Tap to rate this tab
 
# A B C D E F G H I J K L M N O P Q R S T U V W X Y Z