Song name
# A B C D E F G H I J K L M N O P Q R S T U V W X Y Z

As Blood Runs Black - Before The Break Of Dawn tab

---------------------------------------------------------------------------|
-----------6~----6/8--8/10-------------------------------------------------|
-----------7~----7/9--9/10--------------7h10p7-----------------------------|
---------------------------------8-8------------8-7----10-7-7-8------------|
-----------------------------------------------------7----------10-8-------|
-----12/0----------------------8-----8-------------------------------------|

---------------------------------------------------------------------------|
---------------------------------------------------------------------------|
---------------------------------------------------------------------------|
------------7-8-7-5-7-5-3-5-3h5p3-3h5p3-----------------8/7----------7/5---|
----------------------------------------5-3------------10/8----------8/7---|
------5~---------------------------------------888-888-------777-777-------|

played 2x

---------------------------------------------------------------------------|
------------------------10------8------------------------------------------|
-------1010---10---99-9----9-10---10-9-10----10--10-----6-6----9--9--9-10--|
----12-----12----12------------------------12--12--12---7-7--10-10-10------|
---------------------------------------------------------------------------|
---------------------------------------------------------------------------|

---------------------------------------------------------------------------|
------------------------10------8------------------------------------------|
-------1010---10---99-9----9-10---10-9-10----10--10-----6-6----9--9--9-10--|
----12-----12----12------------------------12--12--12---7-7--10-10-10------|
---------------------------------------------------------------------------|
---------------------------------------------------------------------------|

played 4x


---------------------------------------------------------------------------|
---------------------------------------------------------------------------|
---------------------------------------------------------------------------|
---------------------------8p7-------------------------------10p8----------|
--------5h8-5h8----7-8-10-7----8p7------5h8-5h8-----7-8-10-8------10p8-----|
----000---------000-----------------000---------000------------------------|

---------------------------------------------------------------------------|
---------------------------------------------------------------------------|
---------------------------------------------------------------------------|
--------7-8-7-------------------101210121012-710710710---------------------|
------------------7h10-7h10------------------------------------------------|
----888-------777-----------777--------------------------------------------|

sorry thats all i have i tabbed this for tristan mi friend ne ways...
Tap to rate this tab
# A B C D E F G H I J K L M N O P Q R S T U V W X Y Z