Song name
# A B C D E F G H I J K L M N O P Q R S T U V W X Y Z

As Blood Runs Black - My Fears Have Become Phobias tab

Enjoy...If you have a 16 second recorder or something, you can do both parts one
over the other.  Sounds Perfect.

d----------------------------------------------------------------|
A----------------------------------------------------------------|
F-------------------------------12-10-12--14-12-14---14----------|
C----12-11-12-14-12-14-15-14-15--------------------15--15-14~----|
G----------------------------------------------------------------|
C-00-------------------------------------------------------------|
  ..

Guitar 1
d--13h17p13----------12h15p12---------10h13p10---------5h8p5-----|
A----------15----------------13---------------11------------6-5~-|
F------------151515------------141414-----------121212-----------|
C----------------------------------------------------------------|
G----------------------------------------------------------------|
C----------------------------------------------------------------|

Guitar 2
d--13h17p13---------12h15p12--------10h13p10----------5h8p5------|
A----------15151515---------13131313---------11111111-------6-/8-|
F----------------------------------------------------------------|
C----------------------------------------------------------------|
G----------------------------------------------------------------|
C----------------------------------------------------------------|

Guitar 1
d----------------------------------------------------------------|
A-----------<10>---------------<10>------------------------------|
F---7-/10-9-------10-9--7-/10-9-------10-9-----------------------|
C----------------------------------------------------------------|
G----------------------------------------------------------------|
C----------------------------------------------------------------|

Guitar 2
d----------------------------------------------------------------|
A--6-/10-8-<10>-10-8---6-/10-8-<10>--10-8------------------------|
F----------------------------------------------------------------|
C----------------------------------------------------------------|
G----------------------------------------------------------------|
C----------------------------------------------------------------|

Guitar 1
d----------------------------------------------------------------|
A-17p14--14------------------------------------------------------|
F------15--15-14--15-14-12-14-12---------------------------------|
C------------------------------15--14-15-14-12-14-12-11~---------|
G----------------------------------------------------------------|
C----------------------------------------------------------------|

Guitar 2
d----------------------------------------------------------------|
A-20p17--17-------17---------------------------------------------|
F------18--18-19----19-18--18------------------------------------|
C------------------------19--19--17-19-17-15-17-15-14~-----------|
G----------------------------------------------------------------|
C----------------------------------------------------------------|

Guitar 1
d----------------13h17p13-----------------------13h17p13----------|
A--------15p14-----------15-------------15p14-----------15--------|
F------14-----14------------14~-------14-----14-----------14~-----|
C-12h15--------------------------12h15----------------------------|
G-----------------------------------------------------------------|
C-----------------------------------------------------------------|

d-----------------------------------------------------------------|
A-----------------------------------------------------------------|
F--------14h15p14--14--------------------14h15p14--14-------------|
C------17--------17--17-15-14~---------17--------17--17-15-14~----|
G-13h17---------------------------13h17---------------------------|
C-----------------------------------------------------------------|

End Solo, again, enjoy!
Tap to rate this tab
# A B C D E F G H I J K L M N O P Q R S T U V W X Y Z