Song name
# A B C D E F G H I J K L M N O P Q R S T U V W X Y Z

As Blood Runs Black - Before The Break Of Dawn chords

/= slide
h= hammer on
p= pull off
ill get more in later...first tab :] so gimme feedback on tips or whatever xD


e|-----------------------------------------------------------------------|
B|------6---6/8---8/10---------------------------------------------------|
G|------7---7/9---9/11---------------7h10p7------------------------------|
D|--0------------------------8-8-----------8p7-----10-7-7-8--------------|
A|--0---------------------8-----8---------------8-----------10---8---5---|
E|-------------------------------------------------------------------5---|

------------------------------------------|
------------------------------------------|
------------------------------------------|
---5-7-5-8-7-5-7-5------------------------|
-------------------7h8p7p0--5-3-----------|
------------------------------------------|


----------------------------------|
----------------------------------|
----------------------------------|
-333-333---8/7----222-222-----7/5-|
-333-333--10/8----222-222-----8/7-|
-333-333----------222-222---------|


e|-----------------------------------------------------------------------|
B|------6---6/8---8/10---------------------------------------------------|
G|------7---7/9---9/11---------------7h10p7------------------------------|
D|--0------------------------8-8-----------8p7-----10-7-7-8--------------|
A|--0---------------------8-----8---------------8-----------10---8---5---|
E|-------------------------------------------------------------------5---|



-----------------------------------|
-----------------------------------|
-----------------------------------|
---7-8-7-5-7-5---5-----------------|
---------------8---8-7-5~-3~-------|
-----------------------------------|


----------------------------------|
----------------------------------|
----------------------------------|
-333-333---8/7----222-222-----7/5-|
-333-333--10/8----222-222-----8/7-|
-333-333----------222-222---------|


e|-------------------10-8-----8--------------------------------------------|
B|--------------------------8----------------------------------------------|
G|----10p7~--10p7-9------7-------9-10~--7h10-7h10-7h9-9---7-10-10-7-999-7--|
D|--0----------------------------------------------------------------------|
A|--0----------------------------------------------------------------------|
E|-------------------------------------------------------------------------|


Tap to rate this tab
# A B C D E F G H I J K L M N O P Q R S T U V W X Y Z