Song name
# A B C D E F G H I J K L M N O P Q R S T U V W X Y Z

As Blood Runs Black - In Dying Days tab

I only have the lead.

Tuning: Drop C
Mypace: www.myspace.com/7_12_09mattisbamf

Intro:
|---------------------------------------------------------------------------|
|---------------------------------------------------------------------------|
|---------------------------------------------------------------------------|
|------------------------------8--------------7-----------------------------|
|-5-----5-----8-7-10-8-7-7h8p7-8------7h8-5h7-7----5h7-4h5--5-----5---------|
|---000---000--0-0--0-0-0------8--888---------7-777-----------000---000-----|
    ...   ...  . .  . . .         ...           ...           ...   ...
|---------------------------------------------------------------------------|
|---------------------------------------------------------------------------|
|---------------------------------------------------------------------------|
|--------------------------------------------------------0------------------|
|-8h10-10h12-8h10-7~----777888101010888777555-4*---------0------------------|
|--------------------888---------------------------------0------------------|
                  REPEAT THIS INTRO ONCE MORE AND END ON ^^^

Verse:
|---------------------------------------------------------------------------|
|---------------------------------------------------------------------------|
|---------------------------------------------------------------------------|
|---------------------------------------------------------------------------|
|-5--5--5--8-7-10-8p7---5-5-5h7--4-4-4h5--5--5--5-8h12p88h12p8-7h10p77h10p7|
|--00-00-00-0-0--0----88-8-8---77-7-7------00-00----------------------------|
   .. .. .. . .  .    .. . .   .. . .      .. ..
|---------------------------------------------------------------------------|
|---------------------------------------------------------------------------|
|---------------------------------------------------------------------------|
|---------------------------------------------------------------------------|
|---777888101010888777555-4*------------------------------------------------|
|888------------------------------------------------------------------------|
                           REPEAT THIS VERSE TWICE
|---------------------------------------------------------------------------|
|---------------------------------------------------------------------------|
|---------------------------------------------------------------------------|
|---------------------------------------------------------------------------|
|---5-4h5-5h7-7h8-8h10---8-7h8-8h10-8p7-7p5---------------------------------|
|-00-0---0---0---0-----00-0---0----0---0------------------------------------|
  .. .   .   .   .     .. .   .    .   .
REPEAT THIS TWICE

Repeat the verse


|---------------------------------------------------------------------------|
|---------------------------------------------------------------------------
|-------------------------------------777-----------------------------------|
|----------------------------------------777888555--------------------------|
|-0-555777888-7-555777888-8-555777888---------------------------------------|
|-0-----------7-----------8-------------------------------------------------|
  .           .           .   
REPEAT THIS FOUR TIMES

Pre Breakdown:
                                              end with this open chord
|---------------------------------------------------------------------------|
|---------------------------------------------------------------------------|
|---------------------------------------------------------------------------|
|--------------------12/--000-0-000-000---------0---------------------------|
|--------------------12/--000-0-000-000--x4-----0---------------------------|
|-000-000-00-000-000-12/--000-0-000-000---------0---------------------------|
  ... ... .. ... ...      ... . ... ...           
only repeat the open chords

Breakdown:
|---------------------------------------------------------------------------|
|-----e---------------------------------------------------------------------|
|-----s---------------------------------------------------------------------|
|-12/-u-000---000-000-0------000---000-000--12/--111---111-111-1------------|
|-12/-a-000---000-000-0--x3--000---000-000--12/--000---000-000-0-x3---------|
|-12/-p-000---000-000-0------000---000-000--12/--111---111-111-1------------|

            LET ALL CHORDS RINGS

                                      Bridge:
|---------------------------------------------------------------------------|
|---------------------------------------------------------------------------|
|---------------------------------------------------------------------------|
|-000-000-000-0--5-7-8-7-5---7-5----------0---0-0---------------0---0-0-----|
|-000-000-000-0-------8---8-7---8-7-5-----0---0-0------5h7h8----0---0-0-----|
|-000-000-000-0------------------------00000000000-5h7h8------00000000000---|
              ^
Don't let last chord ring

|---------------------------------------------------------------------------|
|---------------------------------------------------------------------------|
|---------------------------------------------------------------------------|
|--------------------------0---0-0---------------0---0-0--------------------|
|-5h8p55h8p5-4h7p44h7p4----0---0-0-------5h7h8---0---0-0--5h8p55h8p5--------|
|-----------------------00000000000--5h7h8----00000000000-------------------|
                        ... ... . .           ....... . .

|---------------------------------------------------------------------------|
|---------------------------------------------------------------------------|
|---------------------------------------------------------------------------|
|---------------------------------------------------------------------------|
|-7h10p77h10p7-repeat-bridge---555444555777555777888777888101010888777------|
|---------------------------------------------------------------------------|

|---------------------------------------------------------------------------|
|---------------------------------------------------------------------------|
|---------------------------------------------------------------------------|
|---------------------------------------------------------------------------|
|-5h8p55h8p5--555444555777555777888777-7*-5h8p55h8p5-7h10p77h10p7-----------|
|---------------------------------------------------------------------------|

Play verse twice but play the end of it like this:
|---------------------------------------------------------------------------|
|---------------------------------------------------------------------------|
|---------------------------------------------------------------------------|
|---------------------------------------------------------------------------|
|----7778881010108-7-5-4~---------------------------------------------------|
|-888-----------------------------------------------------------------------|

Ending:
|---------------------------------------------------------------------------|
|---------------------------------------------------------------------------|
|---------------------------------------------------------------------------|
|-----------------------------8---------------------------------------------|
|-5-----5----8-7-8-10-8-7h8p7-8----7h8-5h7----5h7-4h7--5----5-----8h10------|
|---000---000-----------------8-888--------777-----------000--000-----------|
    ...   ...
|---------------------------------------------------------------------------|
|---------------------------------------------------------------------------|
|---------------------------------------------------------------------------|
|---------------------------------------------------------------------------|
|-10h12-8h10-7~---10\12-10-8h10p8---8\10-8-7h8p7----------------------------|
|---------------8-----------------7-----------------------------------------|



************************************

| /   slide up
| \   slide down
| h   hammer-on
| p   pull-off
| ~   vibrato
| +   harmonic
| .   Mute note
  *   Artificial Harmonic


************************************
Tap to rate this tab
# A B C D E F G H I J K L M N O P Q R S T U V W X Y Z