As Blood Runs Black - Resist tab

As Blood Runs Black
"Resist" (Solo)
Tuning: Drop B


(it is 100% right imo)



C#--18-17-15-----------------------9------------------------------------|
G#-----------11-10-8/10---8-10-8-----11-10-8----------------------------|
E--------------------------------------------9vv------------------------|
B--------------------------------------------------/15-12---------------|
F#----------------------------------------------------------------------|
B-----------------------------------------------------------------------|


C#----------10h13/18p17----------17-------------------------------------|
G#--------11-----------18-----------18----------------------------------|
E-------10---------------19------------17-------------------------------|
B-----12-------------------20\19----------20-19p17----------------------|
F#--13------------------------------------------------------------------|
B-----------------------------------------------------------------------|


C#-----------------12h13h17p13p12---------------------------------------|
G#---------------13--------------13-------------------------------------|
E--------------14------------------14-----------------------------------|
B---12h15p12h15------------------------/15----14-15-14---12-------------|
F#----------------------------------------------------------12----------|
B-----------------------------------------------------------------------|


C#-----------------------------------------------------------------------|
G#-----------------------------------------------------------------------|
E--------------------------9-10-12---------------------------10-12-15-14-|
B-------------------8-10-12--------------------------10-12-13------------|
F#-12h13p12--8-10-12--------------(10-12-13)-10-12-13--------------------|
B------------------------------------------------------------------------|


C#----------------------------------------------------17-15-------------|
G#-----------------------------------15h17h18-15h17h18------18-17h18p17-|
E--12-14-12---/15------------14h15h17-----------------------------------|
B----------------14--14h15h17-------------------------------------------|
F#----------------------------------------------------------------------|
B-----------------------------------------------------------------------|


C#----------------------------------------------------------------------|
G#---15-14-----14----b15vvv---------------------------------------------|
E-----------------------------------------------------------------------|
B-----------------------------------------------------------------------|
F#----------------------------------------------------------------------|
B-----------------------------------------------------------------------|



* vv  - vibrato
  /,\ - slide
  h   - hammer on
  p   - pull off
  b   - bend
Tap to rate this tab
 
# A B C D E F G H I J K L M N O P Q R S T U V W X Y Z