Song name
# A B C D E F G H I J K L M N O P Q R S T U V W X Y Z

As Blood Runs Black - Hester Prynne tab

This song should be atleast 109% accurate.
I had 4 other people, including me, help with corrections and tabbing.
We've read through plenty of tabs and we did our best to tab this beast of a
song - HxCZombie & Friends

Gtr I [Intro 3x]
             PM PM                                      
D||-------|------------------------------------------|
A||-------|o-----------------------------------------|
F||-------|------------------------------------------|
C||-------|------------------------------------------|
G||-------|o-------4h--7p--4--5h--8p--5--7h--10p--7--|
C||-------|--0--0------------------------------------|
   
----------------------------------------------------|
----------------------------------------------------|
----------------------------------------------------|
----------------------------------------------------|
--8h--12p--8--10h--13p--10--8h--12p--8--7h--10p--7--|
----------------------------------------------------|
 
  PM PM  
------------------------------------------|
------------------------------------------|
------------------------------------------|
------------------------------------------|
--------4h--7p--4--5h--8p--5--7h--10p--7--|
--0--0------------------------------------|
 
----------------------------------------------------|
----------------------------------------------------|
----------------------------------------------------|
----------------------------------------------------|
--8h--12p--8--10h--13p--10--8h--12p--8--7h--10p--7--|
----------------------------------------------------|
 
  PM PM                         PM PM  
--------------------------------------|
--------------------------------------|
--------------------------------------|
--------------------------------------|
--------7h--10p--7--8h--12p--8--------|
--8--8--------------------------8--8--|

                          PM PM               
--------------------------------------------|
--------------------------------------------|
--------------------------------------------|
--------------------------------------------|
--7h--10p--7--8h--12p--8--------7h--10p--7--|
--------------------------8--8--------------|
 
   PM  PM                          PM  PM     
------------------------------------------|
------------------------------------------|
------------------------------------------|
------------------------------------------|
----------7h--10p--7--8h--12p--8----------|
--10--10--------------------------10--10--|
 
-------------------------------------------------|
------------------------------------------------o|
-------------------------------------------------|
-------------------------------------------------|
--7h--10p--7--8h--12p--8--7h--10p--7--5h--8p--5-o|
-------------------------------------------------|

[0:24] 4x  
|----------------------------------|----------------------------------|
|o---------------------------------|----------------------------------|
|----------------------------------|----------------------------------|
|----------------------------------|----------------------------------|
|o-5h--8p--5h--8-------------------|--5h--8p--5h--8-------------------|
|-----------------8h--11p--8h--11--|-----------------8h--11p--8h--11--|
 
--------------------------------|--------------------------------|
--------------------------------|-------------------------------o|
--------------------------------|--------------------------------|
--------------------------------|--------------------------------|
--4h--7p--4h--7-----------------|--4h--7p--4h--7----------------o|
-----------------5h--8p--5h--8--|-----------------5h--8p--5h--8--|

[0:41] 2x 
|------------------------------------|-------------------------------------|
|o-----------------------------------|-------------------------------------|
|--7h--10p--7h--10-------------------|--7h--10p--7h--10h-------------------|
|-------------------8h--11p--8h--11--|--------------------8h--11p--8h--11--|
|o-----------------------------------|-------------------------------------|
|------------------------------------|-------------------------------------|
   
--------------------------------|--------------------------------|
--------------------------------|-------------------------------o|
--6h--9p--6h--9-----------------|--6h--9p--6h--9-----------------|
-----------------5h--8p--5h--8--|-----------------5h--8p--5h--8--|
--------------------------------|-------------------------------o|
--------------------------------|--------------------------------|

 4x
  PM PM PM PM PM PM PM PM PM PM PM PM PM PM PM PM    
|--------------------------------------------------|
|o-------------------------------------------------|
|--------------------------------------------------|
|--------------------------------------------------|
|o-0--0--0--0--0--0--0--0--0--0--0--0--0--0--0--0--|
|--0--0--0--0--0--0--0--0--0--0--0--0--0--0--0--0--|
 
 
  PM PM PM PM PM PM PM PM PM    PM PM PM PM     
--------------------------------------------|
--------------------------------------------|
--------------------------------------------|
--------------------------------------------|
--0--0--0--0--0--0--0--0--0-----0--0--0--0--|
--0--0--0--0--0--0--0--0--0-----0--0--0--0--|
 
 
  PM    PM PM PM PM PM    PM PM PM PM    PM    PM PM PM PM PM               
--------------------------------------|-------------------------------|
--------------------------------------|------------------------------o|
--------------------------------------|-------------------------------|
--------------------------------------|-------------------------------|
--0-----0--0--0--0--0-----0--0--0--0--|--0-----0--0--0--0--0---------o|
--0-----0--0--0--0--0-----0--0--0--0--|--0-----0--0--0--0--0----------|
 
  PM PM    PM                 PM PM                   PM   
---------------------------|-----------------------------|
---------------------------|-----------------------------|
---------------------------|-----------------------------|
---------------------------|-----------------------------|
--------5-----3h--5-----5--|--------3h--5p--3------------|
--0--0-----0---------0-----|--0--0-------------5p--3--0--|
 
  PM PM    PM          PM PM                               
-----------------------------|----------------------------|
-----------------------------|----------------------------|
-----------------------------|----------------------------|
-----------------------------|--7p--5---------------------|
--------8-----7h-8p-7--------|---------8p--7--8p--7--5----|
--8--8-----8-----------0--0--|----------------------------|
 
  PM PM    PM                 PM PM                   PM  
---------------------------|-----------------------------|
---------------------------|-----------------------------|
---------------------------|-----------------------------|
---------------------------|-----------------------------|
--------5-----3h--5-----5--|--------3h--5p--3------------|
--0--0-----0---------0-----|--0--0-------------5p--3--0--|
 
  PM PM    PM          PM PM                               
-----------------------------|----------------------------|
-----------------------------|----------------------------|
-----------------------------|----------------------------|
-----------------------------|--7p--5---------------------|
--------8-----7h-8p-7--------|---------8p--7--8p--7--5----|
--8--8-----8-----------0--0--|----------------------------|
 
  PM PM    PM                 PM PM                   PM  
---------------------------|-----------------------------|
---------------------------|-----------------------------|
---------------------------|-----------------------------|
---------------------------|-----------------------------|
--------5-----3h--5-----5--|--------3h--5p--3------------|
--0--0-----0---------0-----|--0--0-------------5p--3--0--|
 
  PM PM    PM          PM PM                               
-----------------------------|----------------------------|
-----------------------------|----------------------------|
-----------------------------|----------------------------|
-----------------------------|--7p--5---------------------|
--------8-----7h-8p-7--------|---------8p--7--8p--7--5----|
--8--8-----8-----------0--0--|----------------------------|
 
  PM PM    PM        PM       PM PM                   PM  
---------------------------|-----------------------------|
---------------------------|-----------------------------|
---------------------------|-----------------------------|
---------------------------|-----------------------------|
--------5-----3h--5-----5--|--------3h--5p--3------------|
--0--0-----0---------0-----|--0--0-------------5p--3--0--|
 
  PM PM    PM          PM PM                               
-----------------------------|----------------------------|
-----------------------------|----------------------------|
-----------------------------|----------------------------|
-----------------------------|--7p--5---------------------|
--------8-----7h-8p-7--------|---------8p--7--8p--7--5----|
--8--8-----8-----------0--0--|----------------------------|
  
  PM PM    PM                      PM  PM                 
---------------------------|-----------------------------|
---------------------------|-----------------------------|
---------------------------|-----------------------------|
---------------------------|---------------------<>3~----|
--0--0--5--0--3h--5~--L----|--L-----------3h--5----------|
--0--0-----0---------------|-------3h--5-----------------|
 
  PM PM    PM                    PM PM PM                 
---------------------------|-----------------------------|
---------------------------|-----------------------------|
---------------------------|---------------------<>7b----|
---------------------------|--------------7h--8----------|
--8--8--8--8--7h--8~--L----|--L--8--8--8-----------------|
--8--8-----8---------------|-----------------------------|
 
  PM PM    PM        PM PM       PM    PM    PM         
---------------------------|---------------------------|
---------------------------|---------------------------|
---------------------------|---------------------------|
---------------------------|--------3------------------|
--------5-----3h--5--------|--5-----------5-----3h--5--|
--0--0-----0---------0--0--|-----0-----0-----0---------|
 
  PM PM    PM        PM PM       PM     PM    PM       
---------------------------|--------------------------|
---------------------------|--------------------------|
---------------------------|--------------------------|
---------------------------|--------------------------|
--------8-----7h--8--------|--8-----10-----8-----7----|
--8--8-----8---------8--8--|-----8------8-----8-------|
 
  PM PM    PM                 PM PM                   PM  
---------------------------|-----------------------------|
---------------------------|-----------------------------|
---------------------------|-----------------------------|
---------------------------|-----------------------------|
--------5-----3h--5-----5--|--------3h--5p--3------------|
--0--0-----0---------0-----|--0--0-------------5p--3--0--|
 
  PM PM    PM          PM PM                               
-----------------------------|----------------------------|
-----------------------------|----------------------------|
-----------------------------|----------------------------|
-----------------------------|--7p--5---------------------|
--------8-----7h-8p-7--------|---------8p--7--8p--7--5----|
--8--8-----8-----------0--0--|----------------------------|
 
  PM PM    PM                 PM PM                   PM  
---------------------------|-----------------------------|
---------------------------|-----------------------------|
---------------------------|-----------------------------|
---------------------------|-----------------------------|
--------5-----3h--5-----5--|--------3h--5p--3------------|
--0--0-----0---------0-----|--0--0-------------5p--3--0--|
 
 
  PM PM    PM          PM PM                               
-----------------------------|----------------------------|
-----------------------------|----------------------------|
-----------------------------|----------------------------|
-----------------------------|--7p--5---------------------|
--------8-----7h-8p-7--------|---------8p--7--8p--7--5----|
--8--8-----8-----------0--0--|----------------------------|
 
 
  PM PM    PM                 PM PM                   PM  
---------------------------|-----------------------------|
---------------------------|-----------------------------|
---------------------------|-----------------------------|
---------------------------|-----------------------------|
--------5-----3h--5-----5--|--------3h--5p--3------------|
--0--0-----0---------0-----|--0--0-------------5p--3--0--|
 
 
  PM PM    PM          PM PM                               
-----------------------------|----------------------------|
-----------------------------|----------------------------|
-----------------------------|----------------------------|
-----------------------------|--7p--5---------------------|
--------8-----7h-8p-7--------|---------8p--7--8p--7--5----|
--8--8-----8-----------0--0--|----------------------------|
 
 
  PM PM    PM                 PM PM                   PM  
---------------------------|-----------------------------|
---------------------------|-----------------------------|
---------------------------|-----------------------------|
---------------------------|-----------------------------|
--------5-----3h--5-----5--|--------3h--5p--3------------|
--0--0-----0---------0-----|--0--0-------------5p--3--0--|
 
 
  PM PM    PM          PM PM                               
-----------------------------|----------------------------|
-----------------------------|----------------------------|
-----------------------------|----------------------------|
-----------------------------|--7p--5---------------------|
--------8-----7h-8p-7--------|---------8p--7--8p--7--5----|
--8--8-----8-----------0--0--|----------------------------|
 
Play intro 2x
Then..
 
  PM PM PM PM        PM      PM PM PM PM   PM PM PM PM      
--------------------------|------------------------------|
--------------------------|------------------------------|
--------------------------|------------------------------|
--------------------------|------------------------------|
--0--0--0--0---------0----|--0--0--0--0----0--0--0--0----|
--0--0--0--0---------0----|--0--0--0--0----0--0--0--0----|
  
  PM PM PM PM        PM                             PM PM PM PM        PM  
--------------------------|----------------------|--------------------------|
--------------------------|----------------------|--------------------------|
--------------------------|----------------------|--------------------------|
--------------------------|----------------------|--------------------------|
--0--0--0--0---------0----|--<>6b----------------|--0--0--0--0---------0----|
--0--0--0--0---------0----|----------------------|--0--0--0--0---------0----|
 
  PM PM PM PM   PM PM PM PM      PM PM PM PM        PM      
------------------------------|--------------------------|
------------------------------|--------------------------|
------------------------------|--------------------------|
------------------------------|--------------------------|
--0--0--0--0----0--0--0--0----|--0--0--0--0---------0----|
--0--0--0--0----0--0--0--0----|--0--0--0--0---------0----|
 
                                                   PM PM PM PM        PM    
------------------13h--17p--13------------------|--------------------------|
--------------15----------------15--------------|--------------------------|
----------14------------------------14----------|--------------------------|
------15--------------------------------15------|--------------------------|
--17----------------------------------------17--|--0--0--0--0---------0----|
------------------------------------------------|--0--0--0--0---------0----|
 
  PM PM PM PM   PM PM PM PM      PM PM PM PM        PM     
------------------------------|--------------------------|
------------------------------|--------------------------|
------------------------------|--------------------------|
------------------------------|--------------------------|
--0--0--0--0----0--0--0--0----|--0--0--0--0---------0----|
--0--0--0--0----0--0--0--0----|--0--0--0--0---------0----|
 
                         PM PM PM PM        PM       
----------------------|--------------------------|
----------------------|--------------------------|
----------------------|--------------------------|
----------------------|--------------------------|
--<>6b----------------|--0--0--0--0---------0----|
----------------------|--0--0--0--0---------0----|
 
  PM PM PM PM   PM PM PM PM      PM PM PM PM        PM    
------------------------------|--------------------------|
------------------------------|--------------------------|
------------------------------|--------------------------|
------------------------------|--------------------------|
--0--0--0--0----0--0--0--0----|--0--0--0--0---------0----|
--0--0--0--0----0--0--0--0----|--0--0--0--0---------0----|
 
                                                   PM PM PM PM        PM    
------------------13h--17p--13------------------|--------------------------|
--------------15----------------15--------------|--------------------------|
----------14------------------------14----------|--------------------------|
------15--------------------------------15------|--------------------------|
--17----------------------------------------17--|--0--0--0--0---------0----|
------------------------------------------------|--0--0--0--0---------0----|
 
  PM PM PM PM   PM PM PM PM      PM PM PM PM        PM    
------------------------------|--------------------------|
------------------------------|--------------------------|
------------------------------|--------------------------|
------------------------------|--------------------------|
--0--0--0--0----0--0--0--0----|--0--0--0--0---------0----|
--0--0--0--0----0--0--0--0----|--0--0--0--0---------0----|
 
                         PM PM PM PM        PM    
----------------------|--------------------------|
----------------------|--------------------------|
----------------------|--------------------------|
----------------------|--------------------------|
--<>6b----------------|--0--0--0--0---------0----|
----------------------|--0--0--0--0---------0----|
 
 
 PM PM PM PM   PM PM PM PM   PM PM PM PM         PM     PM                  
---------------------------|--------------------------|---------------------|
---------------------------|--------------------------|---------------------|
---------------------------|--------------------------|---------------------|
---------------------------|--------------------------|---------------------|
-0--0--0--0----0--0--0--0--|--0--0--0--0---------0----|--0------------------|
-0--0--0--0----0--0--0--0--|--0--0--0--0---------0----|--0------------------|
 
  PM PM PM PM        PM      PM PM PM PM   PM PM PM PM    
--------------------------|------------------------------|
--------------------------|------------------------------|
--------------------------|------------------------------|
--------------------------|------------------------------|
--0--0--0--0---------0----|--0--0--0--0----0--0--0--0----|
--0--0--0--0---------0----|--0--0--0--0----0--0--0--0----|

  PM PM PM PM        PM      PM                    PM PM    PM              
--------------------------|---------------------|--------------------------|
--------------------------|---------------------|--------------------------|
--------------------------|---------------------|--------------------------|
--------------------------|---------------------|--------------------------|
--0--0--0--0---------0----|--0------------------|--------8-----8p--5-------|
--0--0--0--0---------0----|--0------------------|--0--0-----0---------8----|
 
 
 PM PM   PM              PM PM    PM                                        
-----------------------|--------------------------|-------------------------|
-----------------------|--------------------------|-------------------------|
-----------------------|--------------------------|-------------------------|
-----------------------|--------------------------|-------------------------|
------8----8p--5-------|--------8-----8p--5-------|-------------------------|
-0--0----0--------7----|--0--0-----0---------8----|--10----8----<>7b--------|

  PM PM    PM                PM PM    PM              
--------------------------|--------------------------|
--------------------------|--------------------------|
--------------------------|--------------------------|
--------------------------|--------------------------|
--------8-----8p--5-------|--------8-----8p--5-------|
--0--0-----0---------8----|--0--0-----0---------7----|
 
 PM PM   PM                                         PM PM   PM              
-----------------------|-------------------------|--------------------------|
-----------------------|-------------------------|--------------------------|
-----------------------|-------------------------|--------------------------|
-----------------------|-------------------------|--------------------------|
------8----8p--5-------|-------------------------|--------8-----8p--5-------|
-0--0----0--------8----|--10----8----<>7b--------|--0--0-----0---------8----|
 
PM PM  PM              PM PM    PM                            
---------------------|--------------------------|----------------------|
---------------------|--------------------------|----------------------|
---------------------|--------------------------|----------------------|
---------------------|--------------------------|----------------------|
------8---8p--5------|--------8-----8p--5-------|----------------------|
-0--0---0-------7----|--0--0-----0---------8----|--10----8----<>7b-----|
 
  PM PM    PM                PM PM    PM              
--------------------------|--------------------------|
--------------------------|--------------------------|
--------------------------|--------------------------|
--------------------------|--------------------------|
--------8-----8p--5-------|--------8-----8p--5-------|
--0--0-----0---------8----|--0--0-----0---------7----|
 
PM PM    PM                                        PM PM    PM    PM    PM  
-----------------------|-------------------------|--------------------------|
-----------------------|-------------------------|--------------------------|
-----------------------|-------------------------|--------------------------|
-----------------------|-------------------------|--------------------------|
-------8---8p--5-------|-------------------------|--------8-----7-----5-----|
-0--0----0--------8----|--10----8----<>7b--------|--0--0-----0-----0-----0--|
 
                             PM PM     PM    PM    PM    
--------------------------|---------------------------|
--------------------------|---------------------------|
--------------------------|---------------------------|
--<>6b--------------------|---------------------------|
--------------<>4b--------|--------10-----8-----7-----|
--------------------------|--0--0------0-----0-----0--|
 
                             PM PM    PM    PM    PM  
--------------------------|--------------------------|
--------------------------|--------------------------|
--------------------------|--------------------------|
--<>7b--------------------|--------------------------|
--------------<>4b--------|--------8-----7-----5-----|
--------------------------|--0--0-----0-----0-----0--|
 
                             PM PM     PM    PM    PM  
--------------------------|---------------------------|
--------------------------|---------------------------|
--------------------------|---------------------------|
--<>6b--------------------|---------------------------|
--------------<>4b--------|--------10-----8-----7-----|
--------------------------|--0--0------0-----0-----0--|
 
                             PM   PM PM PM PM   PM    
--------------------------|--------------------------|
--------------------------|--------------------------|
--------------------------|--------------------------|
--<>7b--------------------|--------------------------|
--------------<>4b--------|-------8--8--8--7----5----|
--------------------------|--0-----------------------|
 
                             PM    PM PM PM PM   PM    
--------------------------|---------------------------|
--------------------------|---------------------------|
--------------------------|---------------------------|
--<>6b--------------------|---------------------------|
--------------<>4b--------|-------10-10-10--8----7----|
--------------------------|--0------------------------|
 
                             PM   PM PM PM PM   PM    
--------------------------|--------------------------|
--------------------------|--------------------------|
--------------------------|--------------------------|
--<>7b--------------------|--------------------------|
--------------<>4b--------|-------8--8--8--7----5----|
--------------------------|--0-----------------------|
 
                             PM    PM PM PM PM   PM    
--------------------------|---------------------------|
--------------------------|---------------------------|
--------------------------|---------------------------|
--<>6b--------------------|---------------------------|
--------------<>4b--------|-------10-10-10--8----7----|
--------------------------|--0------------------------|
 
--------------------------|-------------------|-------------------|
--------------------------|-------------------|-------------------|
--------------------------|-------------------|-------------------|
--<>7b--------------------|--8----------------|--L----------------|
--------------<>4b--------|--8----------------|--L----------------|
--------------------------|--8----------------|--L----------------|
 
---------------------|-------------------------|
---------------------|-------------------------|
---------------------|-------------------------|
--7------------------|---------------x---------|
--7------------------|---------------x--10\----|
--7------------------|---------------x--10\----|

[Outro] 
 PM PM PM PM PM PM PM PM PM PM PM PM PM PM PM PM   PM         PM PM PM 
-------------------------------------------------|--------------------------|
-------------------------------------------------|--------------------------|
-------------------------------------------------|--------------------------|
-------------------------------------------------|--------------------------|
--0--0--0--0--0--0--0--0--0--0--0--0--0--0--0--0-|--0----------0--0--0------|
--0--0--0--0--0--0--0--0--0--0--0--0--0--0--0--0-|--0----------0--0--0------|
 
 
PM PM PM PM PM PM PM PM PM PM PM PM PM PM PM PM    PM    PM PM    PM PM     
-------------------------------------------------|--------------------------|
-------------------------------------------------|--------------------------|
-------------------------------------------------|--------------------------|
-------------------------------------------------|--------------------------|
-0--0--0--0--0--0--0--0--0--0--0--0--0--0--0--0--|--0-----0--0-----0--0-----|
-0--0--0--0--0--0--0--0--0--0--0--0--0--0--0--0--|--0-----0--0-----0--0-----|
  
PM PM PM PM PM PM PM PM PM PM PM PM PM PM PM PM   PM         PM PM PM     
------------------------------------------------|--------------------------|
------------------------------------------------|--------------------------|
------------------------------------------------|--------------------------|
------------------------------------------------|--------------------------|
-0--0--0--0--0--0--0--0--0--0--0--0--0--0--0--0-|--0----------0--0--0----=-|
-0--0--0--0--0--0--0--0--0--0--0--0--0--0--0--0-|--0----------0--0--0---=--|

Outro isnt hard to do by ear,its just alot to tab.

xxxxxxxxxxxxxxxxxxxxxxxxxxxxxxxxxxxxxxxxxxxxxxxxxxxxxxxxxxxxxxxxxxxxxxxxxxxx
xxxxxxxxxxxxxxxxxxxxxxxxxxxxxxxxxxxxxxxxxxxxxxxxxxxxxxxxxxxxxxxxxxxxxxxxxxxx
xxxxxxxxxxxxxxxxxxxxxxxxxxxxxxxxxxxxxxxxxxxxxxxxxxxxxxxxxxxxxxxxxxxxxxxxxxxx

Gtr II
               
D||-------|---------------------|-------------------|-------------------|
A||-------|---------------------|-------------------|-------------------|
F||-------|---------------------|-------------------|-------------------|
C||-------|--0------------------|-------------------|--0----------------|
G||-------|--0------------------|-------------------|--0----------------|
C||-------|--0------------------|-------------------|--0----------------|
                
-------------------|----------------------|-------------------|
-------------------|----------------------|-------------------|
-------------------|----------------------|-------------------|
--L----------------|--8--------------8----|-------------------|
--L----------------|--8--------------8----|-------------------|
--L----------------|--8--------------8----|-------------------|
                
------------------------|-------------------|
------------------------|-------------------|
------------------------|-------------------|
--10--------------10----|-------------------|
--10--------------10----|-------------------|
--10--------------10----|-------------------|
 
  PM PM                                              
--------------------------------------------------|
--------------------------------------------------|
--------------------------------------------------|
--------11h--14p--11--12h--15p--12--14h--17p--14--|
--------------------------------------------------|
--0--0--------------------------------------------|
   
----------------------------------------------------------|
----------------------------------------------------------|
----------------------------------------------------------|
--15h--19p--15--17h--20p--17--15h--19p--15--14h--17p--14--|
----------------------------------------------------------|
----------------------------------------------------------|
 
  PM PM                                            
--------------------------------------------------|
--------------------------------------------------|
--------------------------------------------------|
--------11h--14p--11--12h--15p--12--14h--17p--14--|
--------------------------------------------------|
--0--0--------------------------------------------|

----------------------------------------------------------|
----------------------------------------------------------|
----------------------------------------------------------|
--15h--19p--15--17h--20p--17--15h--19p--15--14h--17p--14--|
----------------------------------------------------------|
----------------------------------------------------------|
 
  PM PM                             PM PM  
------------------------------------------|
------------------------------------------|
------------------------------------------|
--------14h--17p--14--15h--19p--15--------|
------------------------------------------|
--8--8------------------------------8--8--|

                              PM PM                
--------------------------------------------------|
--------------------------------------------------|
--------------------------------------------------|
--14h--17p--14--15h--19p--15--------14h--17p--14--|
--------------------------------------------------|
------------------------------8--8----------------|

   PM  PM                              PM  PM   
----------------------------------------------|
----------------------------------------------|
----------------------------------------------|
----------14h--17p--14--15h--19p--15----------|
----------------------------------------------|
--10--10------------------------------10--10--|
 
----------------------------------------------------------|
----------------------------------------------------------|
----------------------------------------------------------|
--14h--17p--14--15h--19p--15--14h--17p--14--12h--15p--12--|
----------------------------------------------------------|
----------------------------------------------------------|
 
  PM PM                                    
--------------------------------------------------|
--------------------------------------------------|
--------------------------------------------------|
--------11h--14p--11--12h--15p--12--14h--17p--14--|
--------------------------------------------------|
--0--0--------------------------------------------|
  
----------------------------------------------------------|
----------------------------------------------------------|
----------------------------------------------------------|
--15h--19p--15--17h--20p--17--15h--19p--15--14h--17p--14--|
----------------------------------------------------------|
----------------------------------------------------------|
 
  PM PM                                        
--------------------------------------------------|
--------------------------------------------------|
--------------------------------------------------|
--------11h--14p--11--12h--15p--12--14h--17p--14--|
--------------------------------------------------|
--0--0--------------------------------------------|
   
----------------------------------------------------------|
----------------------------------------------------------|
----------------------------------------------------------|
--15h--19p--15--17h--20p--17--15h--19p--15--14h--17p--14--|
----------------------------------------------------------|
----------------------------------------------------------|
 
  PM PM                             PM PM  
------------------------------------------|
------------------------------------------|
------------------------------------------|
--------14h--17p--14--15h--19p--15--------|
------------------------------------------|
--8--8------------------------------8--8--|
 
                              PM PM                
--------------------------------------------------|
--------------------------------------------------|
--------------------------------------------------|
--14h--17p--14--15h--19p--15--------14h--17p--14--|
--------------------------------------------------|
------------------------------8--8----------------|
 
   PM  PM                              PM  PM  
----------------------------------------------|
----------------------------------------------|
----------------------------------------------|
----------14h--17p--14--15h--19p--15----------|
----------------------------------------------|
--10--10------------------------------10--10--|
 
----------------------------------------------------------|-------------------|
----------------------------------------------------------|-------------------|
----------------------------------------------------------|-------------------|
--14h--17p--14--15h--19p--15--14h--17p--14--12h--15p--12--|-------------------|
----------------------------------------------------------|-------------------|
----------------------------------------------------------|-------------------|
   
----------------------------------|----------------------------------|
----------------------------------|----------------------------------|
----------------------------------|----------------------------------|
----------------------------------|----------------------------------|
--5h--8p--5h--8-------------------|--5h--8p--5h--8-------------------|
-----------------8h--11p--8h--11--|-----------------8h--11p--8h--11--|
  
--------------------------------|--------------------------------|
--------------------------------|--------------------------------|
--------------------------------|--------------------------------|
--------------------------------|--------------------------------|
--4h--7p--4h--7-----------------|--4h--7p--4h--7-----------------|
-----------------5h--8p--5h--8--|-----------------5h--8p--5h--8--|
   
------------------------------------|-------------------------------------|
------------------------------------|-------------------------------------|
--7h--10p--7h--10-------------------|--7h--10p--7h--10h-------------------|
-------------------8h--11p--8h--11--|--------------------8h--11p--8h--11--|
------------------------------------|-------------------------------------|
------------------------------------|-------------------------------------|
   
--------------------------------|--------------------------------|
--------------------------------|--------------------------------|
--6h--9p--6h--9-----------------|--6h--9p--6h--9-----------------|
-----------------5h--8p--5h--8--|-----------------5h--8p--5h--8--|
--------------------------------|--------------------------------|
--------------------------------|--------------------------------|
   
------------------------------------|-------------------------------------|
------------------------------------|-------------------------------------|
--7h--10p--7h--10-------------------|--7h--10p--7h--10h-------------------|
-------------------8h--11p--8h--11--|--------------------8h--11p--8h--11--|
------------------------------------|-------------------------------------|
------------------------------------|-------------------------------------|
   
--------------------------------|--------------------------------|
--------------------------------|--------------------------------|
--6h--9p--6h--9-----------------|--6h--9p--6h--9-----------------|
-----------------5h--8p--5h--8--|-----------------5h--8p--5h--8--|
--------------------------------|--------------------------------|
--------------------------------|--------------------------------|
    
------------------------------------|-------------------------------------|
------------------------------------|-------------------------------------|
--7h--10p--7h--10-------------------|--7h--10p--7h--10h-------------------|
-------------------8h--11p--8h--11--|--------------------8h--11p--8h--11--|
------------------------------------|-------------------------------------|
------------------------------------|-------------------------------------|
 
--------------------------------|--------------------------------|
--------------------------------|--------------------------------|
--6h--9p--6h--9-----------------|--6h--9p--6h--9-----------------|
-----------------5h--8p--5h--8--|-----------------5h--8p--5h--8--|
--------------------------------|--------------------------------|
--------------------------------|--------------------------------|
   
------------------------------------|-------------------------------------|
------------------------------------|-------------------------------------|
--7h--10p--7h--10-------------------|--7h--10p--7h--10h-------------------|
-------------------8h--11p--8h--11--|--------------------8h--11p--8h--11--|
------------------------------------|-------------------------------------|
------------------------------------|-------------------------------------|
  
--------------------------------|--------------------------------|
--------------------------------|--------------------------------|
--6h--9p--6h--9-----------------|--6h--9p--6h--9-----------------|
-----------------5h--8p--5h--8--|-----------------5h--8p--5h--8--|
--------------------------------|--------------------------------|
--------------------------------|--------------------------------|
 
  PM PM PM PM PM PM PM PM PM PM PM PM PM PM PM PM  
--------------------------------------------------|
--------------------------------------------------|
--------------------------------------------------|
--------------------------------------------------|
--0--0--0--0--0--0--0--0--0--0--0--0--0--0--0--0--|
--0--0--0--0--0--0--0--0--0--0--0--0--0--0--0--0--|
 
  PM PM PM PM PM PM PM PM PM    PM PM PM PM  
--------------------------------------------|
--------------------------------------------|
--------------------------------------------|
--------------------------------------------|
--0--0--0--0--0--0--0--0--0-----0--0--0--0--|
--0--0--0--0--0--0--0--0--0-----0--0--0--0--|
 
  PM    PM PM PM PM PM    PM PM PM PM    PM    PM PM PM PM PM          
--------------------------------------|-------------------------------|
--------------------------------------|-------------------------------|
--------------------------------------|-------------------------------|
--------------------------------------|-------------------------------|
--0-----0--0--0--0--0-----0--0--0--0--|--0-----0--0--0--0--0----------|
--0-----0--0--0--0--0-----0--0--0--0--|--0-----0--0--0--0--0----------|
 
  PM PM PM PM PM PM PM PM PM PM PM PM PM PM PM PM  
--------------------------------------------------|
--------------------------------------------------|
--------------------------------------------------|
--------------------------------------------------|
--0--0--0--0--0--0--0--0--0--0--0--0--0--0--0--0--|
--0--0--0--0--0--0--0--0--0--0--0--0--0--0--0--0--|
 
  PM PM PM PM PM PM PM PM PM    PM PM PM PM  
--------------------------------------------|
--------------------------------------------|
--------------------------------------------|
--------------------------------------------|
--0--0--0--0--0--0--0--0--0-----0--0--0--0--|
--0--0--0--0--0--0--0--0--0-----0--0--0--0--|
 
  PM    PM PM PM PM PM    PM PM PM PM    PM    PM PM PM PM PM          
--------------------------------------|-------------------------------|
--------------------------------------|-------------------------------|
--------------------------------------|-------------------------------|
--------------------------------------|-------------------------------|
--0-----0--0--0--0--0-----0--0--0--0--|--0-----0--0--0--0--0----------|
--0-----0--0--0--0--0-----0--0--0--0--|--0-----0--0--0--0--0----------|
 
  PM PM PM PM PM PM PM PM PM PM PM PM PM PM PM PM  
--------------------------------------------------|
--------------------------------------------------|
--------------------------------------------------|
--------------------------------------------------|
--0--0--0--0--0--0--0--0--0--0--0--0--0--0--0--0--|
--0--0--0--0--0--0--0--0--0--0--0--0--0--0--0--0--|
 
  PM PM PM PM PM PM PM PM PM    PM PM PM PM  
--------------------------------------------|
--------------------------------------------|
--------------------------------------------|
--------------------------------------------|
--0--0--0--0--0--0--0--0--0-----0--0--0--0--|
--0--0--0--0--0--0--0--0--0-----0--0--0--0--|
 
  PM    PM PM PM PM PM    PM PM PM PM    PM    PM PM PM PM PM          
--------------------------------------|-------------------------------|
--------------------------------------|-------------------------------|
--------------------------------------|-------------------------------|
--------------------------------------|-------------------------------|
--0-----0--0--0--0--0-----0--0--0--0--|--0-----0--0--0--0--0----------|
--0-----0--0--0--0--0-----0--0--0--0--|--0-----0--0--0--0--0----------|
 
  PM PM PM PM PM PM PM PM PM PM PM PM PM PM PM PM  
--------------------------------------------------|
--------------------------------------------------|
--------------------------------------------------|
--------------------------------------------------|
--0--0--0--0--0--0--0--0--0--0--0--0--0--0--0--0--|
--0--0--0--0--0--0--0--0--0--0--0--0--0--0--0--0--|
 
  PM PM PM PM PM PM PM PM PM    PM PM PM PM  
--------------------------------------------|
--------------------------------------------|
--------------------------------------------|
--------------------------------------------|
--0--0--0--0--0--0--0--0--0-----0--0--0--0--|
--0--0--0--0--0--0--0--0--0-----0--0--0--0--|
 
  PM    PM PM PM PM PM    PM PM PM PM    PM    PM PM PM PM             
--------------------------------------|-------------------------------|
--------------------------------------|-------------------------------|
--------------------------------------|-------------------------------|
--------------------------------------|-------------------------------|
--0-----0--0--0--0--0-----0--0--0--0--|--0-----0--0--0--0--15\--------|
--0-----0--0--0--0--0-----0--0--0--0--|--0-----0--0--0--0--15\--------|
 
                                             PM PM    PM        PM PM  
----------------------|-------------------|---------------------------|
----------------------|-------------------|---------------------------|
----------------------|-------------------|---------------------------|
----------------------|-------------------|---------------------------|
--0-------------------|-------------------|--------8-----7-8-7--------|
--0-------------------|-------------------|--8--8-----8---------0--0--|
 
                               PM PM    PM               
----------------------------|---------------------------|
----------------------------|---------------------------|
----------------------------|---------------------------|
--7p--5---------------------|---------------------------|
---------8p--7--8p--7--5----|--------5-----3h--5-----5--|
----------------------------|--0--0-----0---------0-----|
 
  PM PM                   PM    PM PM    PM        PM PM  
-----------------------------|---------------------------|
-----------------------------|---------------------------|
-----------------------------|---------------------------|
-----------------------------|---------------------------|
--------3h--5p--3------------|--------8-----7-8-7--------|
--0--0-------------5p--3--0--|--8--8-----8---------0--0--|
 
                               PM PM    PM        PM     
----------------------------|---------------------------|
----------------------------|---------------------------|
----------------------------|---------------------------|
--7p--5---------------------|---------------------------|
---------8p--7--8p--7--5----|--------8-----7h--8-----8--|
----------------------------|--0--0-----0---------0-----|
 
  PM PM        PM    PM        PM PM     PM          PM PM  
----------------------------|------------------------------|
----------------------------|------------------------------|
----------------------------|------------------------------|
----------------------------|------------------------------|
--------7h--8-----8-----12--|--------12-----10h--12--------|
--0--0---------0-----0------|--8--8------8-----------0--0--|
 
      PM                           PM PM    PM        PM     
--------------------------------|---------------------------|
--------------------------------|---------------------------|
--------------------------------|---------------------------|
--10----------------------------|---------------------------|
---------12p--10--12p--10--8----|--------8-----7h--8-----8--|
------0-------------------------|--0--0-----0---------0-----|
 
  PM PM        PM    PM        PM PM     PM          PM PM  
----------------------------|------------------------------|
----------------------------|------------------------------|
----------------------------|------------------------------|
----------------------------|------------------------------|
--------7h--8-----8-----12--|--------12-----10h--12--------|
--0--0---------0-----0------|--8--8------8-----------0--0--|
 
      PM                           PM PM    PM               
--------------------------------|---------------------------|
--------------------------------|---------------------------|
--------------------------------|---------------------------|
--10----------------------------|---------------------------|
---------12p--10--12p--10--8----|--0--0--5--0--3h--5~--L----|
------0-------------------------|--0--0-----0---------------|
 
       PM PM                    PM PM    PM               
-----------------------------|---------------------------|
-----------------------------|---------------------------|
-----------------------------|---------------------------|
--------------------<>3b~----|---------------------------|
--L----------3h--5-----------|--8--8--8--8--7h--8~--L----|
-------3--5------------------|--8--8-----8---------------|
 
     PM PM PM                  PM PM    PM        PM PM  
----------------------------|---------------------------|
----------------------------|---------------------------|
---------------------<>7----|---------------------------|
--------------7h--8---------|---------------------------|
--L--8--8--8----------------|--------5-----3h--5--------|
----------------------------|--0--0-----0---------0--0--|
 
     PM    PM    PM           PM PM    PM        PM PM  
---------------------------|---------------------------|
---------------------------|---------------------------|
---------------------------|---------------------------|
--------3------------------|---------------------------|
--5-----------5-----3h--5--|--------8-----7h--8--------|
-----0-----0-----0---------|--8--8-----8---------8--8--|
 
     PM     PM    PM         PM PM    PM               
--------------------------|---------------------------|
--------------------------|---------------------------|
--------------------------|---------------------------|
--------------------------|---------------------------|
--8-----10-----8-----7----|--------5-----3h--5-----5--|
-----8------8-----8-------|--0--0-----0---------0-----|
 
  PM PM                   PM    PM PM    PM          PM PM  
-----------------------------|-----------------------------|
-----------------------------|-----------------------------|
-----------------------------|-----------------------------|
-----------------------------|-----------------------------|
--------3h--5p--3------------|--------8-----7h-8p-7--------|
--0--0-------------5p--3--0--|--8--8-----8-----------0--0--|
 
                               PM PM    PM               
----------------------------|---------------------------|
----------------------------|---------------------------|
----------------------------|---------------------------|
--7p--5---------------------|---------------------------|
---------8p--7--8p--7--5----|--------5-----3h--5-----5--|
----------------------------|--0--0-----0---------0-----|
 
  PM PM                   PM    PM PM    PM          PM PM  
-----------------------------|-----------------------------|
-----------------------------|-----------------------------|
-----------------------------|-----------------------------|
-----------------------------|-----------------------------|
--------3h--5p--3------------|--------8-----7h-8p-7--------|
--0--0-------------5p--3--0--|--8--8-----8-----------0--0--|
 
                               PM PM    PM        PM     
----------------------------|---------------------------|
----------------------------|---------------------------|
----------------------------|---------------------------|
--7p--5---------------------|---------------------------|
---------8p--7--8p--7--5----|--------8-----7h--8-----8--|
----------------------------|--0--0-----0---------0-----|
 
  PM PM        PM    PM        PM PM     PM          PM PM  
----------------------------|------------------------------|
----------------------------|------------------------------|
----------------------------|------------------------------|
----------------------------|------------------------------|
--------7h--8-----8-----12--|--------12-----10h--12--------|
--0--0---------0-----0------|--8--8------8-----------0--0--|
 
 
      PM                           PM PM    PM        PM     
--------------------------------|---------------------------|
--------------------------------|---------------------------|
--------------------------------|---------------------------|
--10----------------------------|---------------------------|
---------12p--10--12p--10--8----|--------8-----7h--8-----8--|
------0-------------------------|--0--0-----0---------0-----|
 
  PM PM        PM    PM        PM PM     PM          PM PM  
----------------------------|------------------------------|
----------------------------|------------------------------|
----------------------------|------------------------------|
----------------------------|------------------------------|
--------7h--8-----8-----12--|--------12-----10h--12--------|
--0--0---------0-----0------|--8--8------8-----------0--0--|
 
      PM                           PM PM                             
--------------------------------|------------------------------------------|
--------------------------------|------------------------------------------|
--------------------------------|------------------------------------------|
--10----------------------------|------------------------------------------|
---------12p--10--12p--10--8----|--------4h--7p--4--5h--8p--5--7h--10p--7--|
------0-------------------------|--0--0------------------------------------|
  
----------------------------------------------------|
----------------------------------------------------|
----------------------------------------------------|
----------------------------------------------------|
--8h--12p--8--10h--13p--10--8h--12p--8--7h--10p--7--|
----------------------------------------------------|
 
  PM PM                                 
------------------------------------------|
------------------------------------------|
------------------------------------------|
------------------------------------------|
--------4h--7p--4--5h--8p--5--7h--10p--7--|
--0--0------------------------------------|
  
----------------------------------------------------|
----------------------------------------------------|
----------------------------------------------------|
----------------------------------------------------|
--8h--12p--8--10h--13p--10--8h--12p--8--7h--10p--7--|
----------------------------------------------------|
 
  PM PM                         PM PM 
--------------------------------------|
--------------------------------------|
--------------------------------------|
--------------------------------------|
--------7h--10p--7--8h--12p--8--------|
--8--8--------------------------8--8--|
 
                          PM PM           
--------------------------------------------|
--------------------------------------------|
--------------------------------------------|
--------------------------------------------|
--7h--10p--7--8h--12p--8--------7h--10p--7--|
--------------------------8--8--------------|
 
   PM  PM                          PM  PM 
------------------------------------------|
------------------------------------------|
------------------------------------------|
------------------------------------------|
----------7h--10p--7--8h--12p--8----------|
--10--10--------------------------10--10--|
   
-------------------------------------------------|
-------------------------------------------------|
-------------------------------------------------|
-------------------------------------------------|
--7h--10p--7--8h--12p--8--7h--10p--7--5h--8p--5--|
-------------------------------------------------|
 
  PM PM                                         
--------------------------------------------------|
--------------------------------------------------|
--------------------------------------------------|
--------11h--14p--11--12h--15p--12--14h--17p--14--|
--------------------------------------------------|
--0--0--------------------------------------------|
   
----------------------------------------------------------|
----------------------------------------------------------|
----------------------------------------------------------|
--15h--19p--15--17h--20p--17--15h--19p--15--14h--17p--14--|
----------------------------------------------------------|
----------------------------------------------------------|
 
  PM PM                                          
--------------------------------------------------|
--------------------------------------------------|
--------------------------------------------------|
--------11h--14p--11--12h--15p--12--14h--17p--14--|
--------------------------------------------------|
--0--0--------------------------------------------|
   
----------------------------------------------------------|
----------------------------------------------------------|
----------------------------------------------------------|
--15h--19p--15--17h--20p--17--15h--19p--15--14h--17p--14--|
----------------------------------------------------------|
----------------------------------------------------------|
 
  PM PM                             PM PM  
------------------------------------------|
------------------------------------------|
------------------------------------------|
--------14h--17p--14--15h--19p--15--------|
------------------------------------------|
--8--8------------------------------8--8--|
 
                              PM PM              
--------------------------------------------------|
--------------------------------------------------|
--------------------------------------------------|
--14h--17p--14--15h--19p--15--------14h--17p--14--|
--------------------------------------------------|
------------------------------8--8----------------|
 
   PM  PM                              PM  PM  
----------------------------------------------|
----------------------------------------------|
----------------------------------------------|
----------14h--17p--14--15h--19p--15----------|
----------------------------------------------|
--10--10------------------------------10--10--|
    
----------------------------------------------------------|
----------------------------------------------------------|
----------------------------------------------------------|
--14h--17p--14--15h--19p--15--14h--17p--14--12h--15p--12--|
----------------------------------------------------------|
----------------------------------------------------------|
 
  PM PM PM PM        PM      PM PM PM PM   PM PM PM PM   
--------------------------|------------------------------|
--------------------------|------------------------------|
--------------------------|------------------------------|
--------------------------|------------------------------|
--0--0--0--0---------0----|--0--0--0--0----0--0--0--0----|
--0--0--0--0---------0----|--0--0--0--0----0--0--0--0----|
 
  PM PM PM PM        PM                                              
--------------------------|----------------------|-------------------|
--------------------------|----------------------|-------------------|
--------------------------|----------------------|-------------------|
--------------------------|----------------------|-------------------|
--0--0--0--0---------0----|--<>6b----------------|-------------------|
--0--0--0--0---------0----|----------------------|-------------------|
 
  PM PM PM PM        PM      PM PM PM PM   PM PM PM PM   
--------------------------|------------------------------|
--------------------------|------------------------------|
--------------------------|------------------------------|
--------------------------|------------------------------|
--0--0--0--0---------0----|--0--0--0--0----0--0--0--0----|
--0--0--0--0---------0----|--0--0--0--0----0--0--0--0----|
 
  PM PM PM PM        PM                                                  
--------------------------|------------------13h--17p--13------------------|
--------------------------|--------------15----------------15--------------|
--------------------------|----------14------------------------14----------|
--------------------------|------15--------------------------------15------|
--0--0--0--0---------0----|--17----------------------------------------17--|
--0--0--0--0---------0----|------------------------------------------------|
 
  PM PM PM PM        PM      PM PM PM PM   PM PM PM PM  
--------------------------|------------------------------|
--------------------------|------------------------------|
--------------------------|------------------------------|
--------------------------|------------------------------|
--0--0--0--0---------0----|--0--0--0--0----0--0--0--0----|
--0--0--0--0---------0----|--0--0--0--0----0--0--0--0----|
 
  PM PM PM PM        PM                             PM PM PM PM        PM    
--------------------------|----------------------|--------------------------|
--------------------------|----------------------|--------------------------|
--------------------------|----------------------|--------------------------|
--------------------------|----------------------|--------------------------|
--0--0--0--0---------0----|--<>6b----------------|--0--0--0--0---------0----|
--0--0--0--0---------0----|----------------------|--0--0--0--0---------0----|
 
  PM PM PM PM   PM PM PM PM      PM PM PM PM        PM     
------------------------------|--------------------------|
------------------------------|--------------------------|
------------------------------|--------------------------|
------------------------------|--------------------------|
--0--0--0--0----0--0--0--0----|--0--0--0--0---------0----|
--0--0--0--0----0--0--0--0----|--0--0--0--0---------0----|
 
                                                   PM PM PM PM        PM     
------------------13h--17p--13------------------|--------------------------|
--------------15----------------15--------------|--------------------------|
----------14------------------------14----------|--------------------------|
------15--------------------------------15------|--------------------------|
--17----------------------------------------17--|--0--0--0--0---------0----|
------------------------------------------------|--0--0--0--0---------0----|
 
  PM PM PM PM   PM PM PM PM      PM PM PM PM        PM    
------------------------------|--------------------------|
------------------------------|--------------------------|
------------------------------|--------------------------|
------------------------------|--------------------------|
--0--0--0--0----0--0--0--0----|--0--0--0--0---------0----|
--0--0--0--0----0--0--0--0----|--0--0--0--0---------0----|
 
                         PM PM PM PM        PM    
----------------------|--------------------------|
----------------------|--------------------------|
----------------------|--------------------------|
----------------------|--------------------------|
--<>6b----------------|--0--0--0--0---------0----|
----------------------|--0--0--0--0---------0----|
 
  PM PM PM PM   PM PM PM PM      PM PM PM PM        PM      PM                         
------------------------------|--------------------------|---------------------|
------------------------------|--------------------------|---------------------|
------------------------------|--------------------------|---------------------|
------------------------------|--------------------------|---------------------|
--0--0--0--0----0--0--0--0----|--0--0--0--0---------0----|--0------------------|
--0--0--0--0----0--0--0--0----|--0--0--0--0---------0----|--0------------------|
 
  PM PM PM PM        PM      PM PM PM PM   PM PM PM PM      
--------------------------|------------------------------|
--------------------------|------------------------------|
--------------------------|------------------------------|
--------------------------|------------------------------|
--0--0--0--0---------0----|--0--0--0--0----0--0--0--0----|
--0--0--0--0---------0----|--0--0--0--0----0--0--0--0----|
 
  PM PM PM PM        PM      PM                     PM                
--------------------------|----------------------|----------------------|
--------------------------|----------------------|----------------------|
--------------------------|----------------------|----------------------|
--------------------------|----------------------|----------------------|
--0--0--0--0---------0----|--0-------------------|----------------------|
--0--0--0--0---------0----|--0---------8\--------|--0-------------------|
          
-------------------|-------------------|-------------------------|
-------------------|-------------------|-------------------------|
-------------------|-------------------|-------------------------|
-------------------|-------------------|-------------------------|
-------------------|-------------------|-------------------------|
-------------------|-------------------|--10----8----<>7b--------|
 
  PM PM    PM                PM PM    PM             
--------------------------|--------------------------|
--------------------------|--------------------------|
--------------------------|--------------------------|
--------------------------|--------------------------|
--------8-----8p--5-------|--------8-----8p--5-------|
--0--0-----0---------8----|--0--0-----0---------7----|
 
  PM PM    PM                                          PM PM    PM                 
--------------------------|-------------------------|--------------------------|
--------------------------|-------------------------|--------------------------|
--------------------------|-------------------------|--------------------------|
--------------------------|-------------------------|--------7-----7-----------|
--------8-----8p--5-------|-------------------------|-----------------8p--5----|
--0--0-----0---------8----|--10----8----<>7b--------|--0--0-----0--------------|
 
  PM PM    PM                PM PM    PM                                            
--------------------------|--------------------------|-----------------------|
--------------------------|--------------------------|-----------------------|
--------------------------|--------------------------|-----------------------|
--------7-----7-----------|--------7-----7-----------|-----------------------|
-----------------8p--4----|-----------------8p--5----|--7----5----<>4--------|
--0--0-----0--------------|--0--0-----0--------------|-----------------------|
 
  PM PM    PM                PM PM    PM             
--------------------------|--------------------------|
--------------------------|--------------------------|
--------------------------|--------------------------|
--------7-----7-----------|--------7-----7-----------|
-----------------8p--5----|-----------------8p--4----|
--0--0-----0--------------|--0--0-----0--------------|
 
  PM PM    PM                                        PM PM     PM     PM    PM    
--------------------------|-----------------------|----------------------------|
--------------------------|-----------------------|----------------------------|
--------------------------|-----------------------|----------------------------|
--------7-----7-----------|-----------------------|----------------------------|
-----------------8p--5----|--7----5----<>4--------|--------12-----10-----8-----|
--0--0-----0--------------|-----------------------|--0--0------0------0-----0--|
 
                             PM PM     PM     PM     PM  
--------------------------|-----------------------------|
--------------------------|-----------------------------|
--------------------------|-----------------------------|
--<>6b--------------------|-----------------------------|
--------------<>4b--------|--------13-----12-----10-----|
--------------------------|--0--0------0------0------0--|
 
                             PM PM     PM     PM    PM  
--------------------------|----------------------------|
--------------------------|----------------------------|
--------------------------|----------------------------|
--<>7b--------------------|----------------------------|
--------------<>4b--------|--------12-----10-----8-----|
--------------------------|--0--0------0------0-----0--|
 
                             PM PM     PM     PM     PM  
--------------------------|-----------------------------|
--------------------------|-----------------------------|
--------------------------|-----------------------------|
--<>6b--------------------|-----------------------------|
--------------<>4b--------|--------13-----12-----10-----|
--------------------------|--0--0------0------0------0--|
  
                             PM    PM PM PM  PM   PM    
--------------------------|----------------------------|
--------------------------|----------------------------|
--------------------------|----------------------------|
--<>7b--------------------|----------------------------|
--------------<>4b--------|-------12-12-12--10----8----|
--------------------------|--0-------------------------|
 
                             PM    PM PM PM  PM    PM    
--------------------------|-----------------------------|
--------------------------|-----------------------------|
--------------------------|-----------------------------|
--<>6b--------------------|-----------------------------|
--------------<>4b--------|-------13-13-13--12----10----|
--------------------------|--0--------------------------|
 
                             PM    PM PM PM  PM   PM    
--------------------------|----------------------------|
--------------------------|----------------------------|
--------------------------|----------------------------|
--<>7b--------------------|----------------------------|
--------------<>4b--------|-------12-12-12--10----8----|
--------------------------|--0-------------------------|
 
                             PM    PM PM PM  PM    PM    
--------------------------|-----------------------------|
--------------------------|-----------------------------|
--------------------------|-----------------------------|
--<>6b--------------------|-----------------------------|
--------------<>4b--------|-------13-13-13--12----10----|
--------------------------|--0--------------------------|
 
--------------------------|-------------------|-------------------|
--------------------------|-------------------|-------------------|
--------------------------|-------------------|-------------------|
--<>7b--------------------|--8----------------|--L----------------|
--------------<>4b--------|--8----------------|--L----------------|
--------------------------|--8----------------|--L----------------|
 
---------------------|-------------------|
---------------------|-------------------|
---------------------|-------------------|
--7------------------|-------------------|
--7------------------|-------------------|
--7------------------|-------------------|

[Outro is same as Guitar 1]





<>   Harmonic
PM   Palm mute
L    Let ring
h    Hammer on
p    Pull off
b    Bend
Tap to rate this tab
 
# A B C D E F G H I J K L M N O P Q R S T U V W X Y Z