Song name
# A B C D E F G H I J K L M N O P Q R S T U V W X Y Z

As Blood Runs Black - Resist tab

-------------------------------------------------------------------------------
			    RESIST- As Blood Runs Black
-------------------------------------------------------------------------------
Tabbed by: Jeff
Email:jantoni539@gmail.com

Tuning: Drop B but I Tabbed in C cause I'm too lazy to tune right now.
  Verse:                                                                _
C#|---------------------------------------------------------------------| \
G#|---------------------------------------------------------------------| |
E |---------------------------------------------------------------------| |
B |--------------------5------------------------------5-7-5---5---------| |
F#|--8-------8---5-----------5---7h8p7--8-------8---5-------8---8-7-8---| |
B |----0-0-0---0---0-0---0-0---0----------0-0-0---0---------------------| |
       x x x   x   x x   x x   x          x x x   x                       |
C#|---------------------------------------------------------------------| |
G#|---------------------------------------------------------------------| |
E |---------------------------------------------------------------------| |
B |--3-------3---------3-----3---3--------------------------------------|2X
F#|--------------5------------------------------------------------------| |
B |----3-3-3---3---3-3---3-3---3---3------------------------------------| |
       x x x   x   x x   x x   x   x                                      |
C#|---------------------------------------------------------------------| |
G#|---------------------------------------------------------------------| |
E |---------------------------------------------------------------------| |
B |---------------------------------------------------------------------| |
F#|--8-------8---5-----8-----8---8--------------------------------------| |
B |----7-7-7---7---7-7---7-7---7---7------------------------------------|_/
       x x x   x   x x   x x   x   x
C#|-------------Not Sure about this part-------------|
G#|-----------But I think it goes a little like this-|
E |--------------------------------------------------|
B |--------------------------------------------------|
F#|--------5----8---7--------------------------------|
B |---0h3h7-7p3---5---5------------------------------|
 Breakdown
C#|------------------------------------------------------|
G#|------------------------------------------------------|
E |------------------------------------------------------|
B |-0--00-0--000-0000-000--00000000-0-0-0-000-0000-000---|
F#|-0--00-0--000-0000-000--00000000-0-0-0-000-0000-000---|2X
B |-0--00-0--000-0000-000--00000000-0-0-0-000-0000-000---|
       xx x  xxx xxx  xx   xxxxxxx  x x x xxx xxx  xxx
Repeat Verse
C#|---------------------------------------------------------------------| \
G#|---------------------------------------------------------------------| |
E |---------------------------------------------------------------------| |
B |--------------------5------------------------------5-7-5---5---------| |
F#|--8-------8---5-----------5---7h8p7--8-------8---5-------8---8-7-8---| |
B |----0-0-0---0---0-0---0-0---0----------0-0-0---0---------------------| |
       x x x   x   x x   x x   x          x x x   x                       |
C#|---------------------------------------------------------------------| |
G#|---------------------------------------------------------------------| |
E |---------------------------------------------------------------------| |
B |--3-------3---------3-----3---3--------------------------------------|2X
F#|--------------5------------------------------------------------------| |
B |----3-3-3---3---3-3---3-3---3---3------------------------------------| |
       x x x   x   x x   x x   x   x                                      |
C#|---------------------------------------------------------------------| |
G#|---------------------------------------------------------------------| |
E |---------------------------------------------------------------------| |
B |---------------------------------------------------------------------| |
F#|--8-------8---5-----8-----8---8--------------------------------------| |
B |----7-7-7---7---7-7---7-7---7---7------------------------------------|_/  
I can't figure out the second breakdown. its purdy hard.
The second half to the 2nd breakdown is just a bunch of palm muted open BF#B
3rd Verse:
C#|-------------------------------------------------------------------------|
G#|-------------------------------------------------------------------------|
E |-------------------------------------------------------------------------|
B |-------------------------------------------------------------------------|
F#|--8-------8-------7-------7-------5-------5-------4----------------------|
B |----0-0-0---0-0-0---0-0-0---0-0-0---0-0-0---0-0-0----33-55-77------------|
       x x x   x x x   x x x   x x x   x x x   x x x  
C#|------------------------------------------------------------------------|
G#|------------------------------------------------------------------------|
E |------------------------------------------------------------------------|
B |------------------------------------------------------------------------|
F#|--8-------8-------7-------7-------12-10-8-10-12-10 8h10p8-7-------------|
B |----8-8-8---8-8-8---8-8-8---8-8-8---------------------------------------|
       x x x   x x x   x x x   x x x
C#|------------------------------------------------------------------------|
G#|------------------------------------------------------------------------|
E |------------------------------------------------------------------------|
B |------------------------------------------------------------------------|
F#|--8-------8-------7-------7-------5-------5-------4---------------------|
B |----0-0-0---0-0-0---0-0-0---0-0-0---0-0-0---0-0-0----33-55-77-----------|
       x x x   x x x   x x x   x x x   x x x   x x x   
C#|-------------------------------------------------------------------------|
G#|-------------------------------------------------------------------------|
E |-------------------------------------------------------------------------|
B |-------------------------------------------------------------------------|
F#|--8-------8-------7-------7-------12-10-8-10-12--------------------------|
B |----8-8-8---8-8-8---8-8-8---8-8-8----------------0-5-7-------------------|
       x x x   x x x   x x x   x x x                                      _
C#|----------------------------------------------------------------------| \
G#|----------------------------------------------------------------------| |
E |----------------------------------------------------------------------| |
B |----------------------------------------------------------------------| |
F#|--8888-----8888-----8888----8888------88885555----55557777------------| |
B |------00000----0000-----0000----000000--------8888--------------------| |
         xxxxx    xxxx     xxxx    xxxxxx                                  2X
C#|----------------------------------------------------------------------| |
G#|----------------------------------------------------------------------| |
E |--------------------------------------/NoTrem.SecondTimeThrough\------| |
B |--------------------------------------|------------------------|------| |
F#|--8888-----8888-----8888----8888------8/121212121010108887778---------| |
B |------88888----8888-----8888----888888--------------------------------|_/
         xxxxx    xxxx     xxxx    xxxxxx        
C#|-------------------------------------------|
G#|-------------------------------------------|
E |-------------------------------------------|
B |-------------------------------------------|
F#|--8---8---7---7---5---5---4----------------|
B |----0---0---0---0---0---0----3-5-7---------|
       x   x   x   x   x   x 
C#|-------------------------------------------|
G#|-------------------------------------------|
E |-------------------------------------------|
B |-------------------------------------------|
F#|--8---8---7---7---12-10-8-10-12------------|
B |----8---8---8---8--------------------------|
       x   x   x   x   
C#|---------------------------------------------|\
G#|---------------------------------------------||
E |---------------------------------------------||
B |---------------------------------------------||
F#|---8-----8-----7----7----5----5----4---------||
B |------7-----7-----7----7----7----7---3-5-7---| \
         x     x     x    x    x    x             2X    
C#|---------------------------------------------| /
G#|---------------------------------------------||
E |---------------------------------------------||
B |---------------------------------------------||
F#|---8-----8-----7----7----10---10---8-7-5-7---||
B |------8-----8-----8----8----8----8-----------|/
         x     x     x    x    x    x             
Thats all I got for now. Let me know what you think. Peace.
************************************

| /   slide up
| \   slide down
| h   hammer-on
| p   pull-off
| ~   vibrato
| +   harmonic
| x   Mute note
| b   Bend
| pb  Pre-bend
| br  Bend release
| pbr Pre-bend release
| brb Bend release bend

************************************
Tap to rate this tab
 
# A B C D E F G H I J K L M N O P Q R S T U V W X Y Z