Song name
# A B C D E F G H I J K L M N O P Q R S T U V W X Y Z

As Blood Runs Black - In Dying Days tab

  Guitar I (0:00-0:06)
D||--------------------------------------------------------------------------------|
A||--------------------------------------------------------------------------------|
F||--------------------------------------------------------------------------------|
C||--------------------------------------------------------------------------------|
G||-5-------5-------8---7---10---8---7h8p7---------7h8---5h7p5---------5h7---4h5p4-|
C||-----000-----000---0---0----0---0--------8--888-----8--------7--777-----7-------|
PM|-----xxx-----xxx---x---x----x---x-----------xxx-----x-----------xxx-----x-------|

 ||Guitar I (0:07-0:12)
D||---------------------------------------------------------------------|
A||---------------------------------------------------------------------|
F||---------------------------------------------------------------------|
C||---------------------------------------------------------------------|
G||-5-------5-------8h10---10h12---8h10p8p7-----7778881010108887775554*-|
C||-----000-----000------0-------0-----------888------------------------|
PM|-----xxx-----xxx------x-------x--------------------------------------|


 ||Guitar I (0:13-0:18)
D||---------------------------------------------------------------------------------|
A||---------------------------------------------------------------------------------|
F||---------------------------------------------------------------------------------|
C||---------------------------------------------------------------------------------|
G||-5-------5-------8---7---10---8---7h8p7----------7h8---5h7p5---------5h7---4h5p4-|
C||-----000-----000---0---0----0---0--------8--888------8--------7--777-----7-------|
PM|-----xxx-----xxx---x---x----x---x-----------xxx------x-----------xxx-----x-------|


 ||Guitar I (0:19-024)
D||---------------------------------------------------------------------|
A||---------------------------------------------------------------------|
F||---------------------------------------------------------------------|
C||---------------------------------------------------------------------|
G||-5-------5-------8h10---10h12---8h10p8p7-----7778881010108887775554*-|
C||-----000-----000------0-------0-----------888------------------------|
PM|-----xxx-----xxx------x-------x--------------------------------------|


   Guitar I (0:25-0:31)
D||----------------------------------------------------|
A||----------------------------------------------------|
F||----------------------------------------------------|
C||-0----(0)----(0)----(0)----(0)----(0)----(0)--------|
G||-0----(0)----(0)----(0)----(0)----(0)----(0)----19\-|
C||-0----(0)----(0)----(0)----(0)----(0)----(0)----20\-|
    	   End Intro
Verse I:
   Guitar I (0:32-0:36)
D||------------------------------------------------------------------|
A||------------------------------------------------------------------|
F||------------------------------------------------------------------|
C||------------------------------------------------------------------|
G||-5-----5---5---8---7---10---8p7------5---5---5h7------4---4---4h5-|
C||---0-0---0---0---0---0----0------8-8---8---8------7-7---7---7-----|
PM|---x-x---x---x---x---x----x------x-x---x---x------x-x---x---x-----|

   Guitar I (0:37-0:41)
D||---------------------------------------------------------------|
A||---------------------------------------------------------------|
F||---------------------------------------------------------------|
C||---------------------------------------------------------------|
G||-5-----5---5---8h12-8h12-7h10-7h10-----7778881010108887775554*-|
C||---0-0---0---0----------------------888------------------------|
PM|---x-x---x---x-------------------------------------------------|


 ||Guitar I (0:41-0:44)
D||------------------------------------------------------------------|
A||------------------------------------------------------------------|
F||------------------------------------------------------------------|
C||------------------------------------------------------------------|
G||-5-----5---5---8---7---10---8p7------5---5---5h7------4---4---4h5-|
C||---0-0---0---0---0---0----0------8-8---8---8------7-7---7---7-----|
PM|---x-x---x---x---x---x----x------x-x---x---x------x-x---x---x-----|

 ||Guitar I (0:45-0:50)
D||---------------------------------------------------------------|
A||---------------------------------------------------------------|
F||---------------------------------------------------------------|
C||---------------------------------------------------------------|
G||-5-----5---5---8h12-8h12-7h10-7h10-----7778881010108887775554*-|
C||---0-0---0---0----------------------888------------------------|
PM|---x-x---x---x-------------------------------------------------|
         End Verse I

Verse II:
   Guitar I (0:50-0:53)
D||----------------------------------------------------------------|
A||----------------------------------------------------------------|
F||----------------------------------------------------------------|
C||----------------------------------------------------------------|
G||-----5---4h5---5h7---7h8---8h10------8---7h8---8h10---8p7---5p4-|
C||-0-0---0-----0-----0-----0-------0-0---0-----0------0-----0-----|
PM|-x-x---x-----x-----x-----x-------x-x---x-----x------x-----x-----|

Guitar I (0:54-0:58)
D||----------------------------------------------------------------|
A||----------------------------------------------------------------|
F||----------------------------------------------------------------|
C||----------------------------------------------------------------|
G||-----5---4h5---5h7---7h8---8h10------8---7h8---8h10---8p7---4*--|
C||-0-0---0-----0-----0-----0-------0-0---0-----0------0-----0-----|
PM|-x-x---x-----x-----x-----x-------x-x---x-----x------x-----x-----|

          End Verse II




Verse III:
   Guitar I (0:59-1:02)
D||------------------------------------------------------------------|
A||------------------------------------------------------------------|
F||------------------------------------------------------------------|
C||------------------------------------------------------------------|
G||-5-----5---5---8---7---10---8p7------5---5---5h7------4---4---4h5-|
C||---0-0---0---0---0---0----0------8-8---8---8------7-7---7---7-----|
PM|---x-x---x---x---x---x----x------x-x---x---x------x-x---x---x-----|

   Guitar I (1:02-1:06)
D||---------------------------------------------------------------|
A||---------------------------------------------------------------|
F||---------------------------------------------------------------|
C||---------------------------------------------------------------|
G||-5-----5---5---8h12-8h12-7h10-7h10-----7778881010108887775554*-|
C||---0-0---0---0----------------------888------------------------|
PM|---x-x---x---x-------------------------------------------------|


 ||Guitar I(1:07-1:11)
D||------------------------------------------------------------------|
A||------------------------------------------------------------------|
F||------------------------------------------------------------------|
C||------------------------------------------------------------------|
G||-5-----5---5---8---7---10---8p7------5---5---5h7------4---4---4h5-|
C||---0-0---0---0---0---0----0------8-8---8---8------7-7---7---7-----|
PM|---x-x---x---x---x---x----x------x-x---x---x------x-x---x---x-----|


 ||Guitar I (1:11-1:15)
D||---------------------------------------------------------------|
A||---------------------------------------------------------------|
F||---------------------------------------------------------------|
C||---------------------------------------------------------------|
G||-5-----5---5---8h12-8h12-7h10-7h10-----7778881010108887775554*-|
C||---0-0---0---0----------------------888------------------------|
PM|---x-x---x---x-------------------------------------------------|
       End Verse III

Verse IV:


 ||Guitar I(1:15-1:19)
D||-----------------------------------------------------------|
A||-----------------------------------------------------------|
F||-----------------------------------------------------------|
C||----------------------------------------121212777-7h8p7-5*-|
G||---555777888---555777888---777888101010--------------------|
C||-0-----------7-----------8---------------------------------|


 ||Guitar I(1:20-1:23)
D||-----------------------------------------------------------|
A||-----------------------------------------------------------|
F||-----------------------------------------------------------|
C||----------------------------------------121212777-7h8p7-5*-|
G||---555777888---555777888---777888101010--------------------|
C||-0-----------7-----------8---------------------------------|


 ||Guitar I(1:24-1:28)
D||-----------------------------------------------------------|
A||-----------------------------------------------------------|
F||-----------------------------------------------------------|
C||----------------------------------------121212777-7h8p7-5*-|
G||---555777888---555777888---777888101010--------------------|
C||-0-----------7-----------8---------------------------------|


||Guitar I(1:28-1:32)
D||-----------------------------------------------------------|
A||-----------------------------------------------------------|
F||-----------------------------------------------------------|
C||----------------------------------------121212777-7h8p7-5*-|
G||---555777888---555777888---777888101010--------------------|
C||-0-----------7-----------8---------------------------------|

End Verse IV

Breakdown Part I:
   Guitar I (1:34-1:36)
D||----------------------------------|
A||----------------------------------|
F||----------------------------------|
C||----------------------------------|
G||-0000--0000-0000--0000--000-0-19\-|
C||-0000--0000-0000--0000--000-0-20\-|
PM|-xxxx--xxxx-xxxx--xxxx--xxx-x-----|


   Guitar I (1:37-1:42)
D||-------------------------------------------------------------------------|
A||-------------------------------------------------------------------------|
F||-------------------------------------------------------------------------|
C||-------------------------------------------------------------------------|
G||-0000--0000-0000-0-0000--0000-0000-0-0000--0000-0000-0-0000--0000-0000-0-|
C||-0000--0000-0000-0-0000--0000-0000-0-0000--0000-0000-0-0000--0000-0000-0-|
PM|-xxxx--xxxx-xxxx-x-xxxx--xxxx-xxxx-x-xxxx--xxxx-xxxx-x-xxxx--xxxx-xxxx-x-|


   Guitar I (1:43-1:50)
D||--------------------------------------------------------------------------|
A||--------------------------------------------------------------------------|
F||--------------------------------------------------------------------------|
C||--------------------------------------------------------------------------|
G||-0000--0000-0000-0-0000--0000-0000-0-0000--0000-0000-0-0000--0000-000-0-0-|
C||-0000--0000-0000-0-0000--0000-0000-0-0000--0000-0000-0-0000--0000-000-0-0-|
PM|-xxxx--xxxx-xxxx-x-xxxx--xxxx-xxxx-x-xxxx--xxxx-xxxx-x-xxxx--xxxx-xxx-x-x-|


  Guitar I (1:58-1:59)
D||-----|
A||-----|
F||-----|
C||-----|
G||-----|
C||-11\-|
PM|

End Breakdown Part I
Breakdown Part II:
   Guitar I (2:00-2:06)
D||----------------------------------------------------------------------------|
A||----------------------------------------------------------------------------|
F||----------------------------------------------------------------------------|
C||----------------------------------------------------------------------------|
G||-0-0-0-0-0----0-0-0-0-0--0-0-0-0-0--0--0-0-0-0-0----0-0-0-0-0--0-0-0-0-0--0-|
C||-0-0-0-0-0----0-0-0-0-0--0-0-0-0-0--0--0-0-0-0-0----0-0-0-0-0--0-0-0-0-0--0-|
PM|-x-x-x-x-x----x-x-x-x-x--x-x-x-x-x--x--x-x-x-x-x----x-x-x-x-x--x-x-x-x-x--x-|


   Guitar I (2:07-2:12)
D||-----------------------------------------------------------------------------|
A||-----------------------------------------------------------------------------|
F||-----------------------------------------------------------------------------|
C||-----------------------------------------------------------------------------|
G||-0-0-0-0-0----0-0-0-0-0--0-0-0-0-0--0--0-0-0-0-0----0-0-0-0-0--0-0-0-0-0--7\-|
C||-0-0-0-0-0----0-0-0-0-0--0-0-0-0-0--0--0-0-0-0-0----0-0-0-0-0--0-0-0-0-0--8\-|
PM|-x-x-x-x-x----x-x-x-x-x--x-x-x-x-x--x--x-x-x-x-x----x-x-x-x-x--x-x-x-x-x-----|

   Guitar I (2:12-2:17)
D||----------------------------------------------------------------------------|
A||----------------------------------------------------------------------------|
F||----------------------------------------------------------------------------|
C||----------------------------------------------------------------------------|
G||-1-1-1-1-1----1-1-1-1-1--1-1-1-1-1--1--1-1-1-1-1----1-1-1-1-1--1-1-1-1-1--1-|
C||-1-1-1-1-1----1-1-1-1-1--1-1-1-1-1--1--1-1-1-1-1----1-1-1-1-1--1-1-1-1-1--1-|
PM|-x-x-x-x-x----x-x-x-x-x--x-x-x-x-x--x--x-x-x-x-x----x-x-x-x-x--x-x-x-x-x--x-|

   Guitar I(2:17-2:23)
D||----------------------------------------------------------------------------|
A||----------------------------------------------------------------------------|
F||----------------------------------------------------------------------------|
C||----------------------------------------------------------------------------|
G||-1-1-1-1-1----1-1-1-1-1--1-1-1-1-1--1--0-0-0-0-0----0-0-0-0-0--0-0-0-0-0--0-|
C||-1-1-1-1-1----1-1-1-1-1--1-1-1-1-1--1--0-0-0-0-0----0-0-0-0-0--0-0-0-0-0--0-|
PM|-x-x-x-x-x----x-x-x-x-x--x-x-x-x-x--x--x-x-x-x-x----x-x-x-x-x--x-x-x-x-x--x-|


 End Breakdown Part II
   Guitar I (2:24-2:26)
D||---------------------------|
A||---------------------------|
F||---------------------------|
C||-5-8-7---7-5-----7-5-------|
G||-------8-----8-7-----8-7-5-|
C||---------------------------|




Verse V:

 ||Guitar I (2:27-2:31)
D||--------------------------------------------------------------|
A||--------------------------------------------------------------|
F||--------------------------------------------------------------|
C||--------------------------------------------------------------|
G||-------0-------0---0-------5-7--------0---0---5h8p5h8-4h7p4h7-|
C||-0-0-0-0---0-0-0-0-0-0-5-7------0-0-0-0-0-0-0-----------------|
PM|-x-x-x-----x-x---x---x----------x-x-x---x---x-----------------|

 ||Guitar I (2:31-2:36)
D||--------------------------------------------------------------|
A||--------------------------------------------------------------|
F||--------------------------------------------------------------|
C||--------------------------------------------------------------|
G||-------0-------0---0-------5-7--------0---0---5h8p5h8-4h7p4h7-|
C||-0-0-0-0---0-0-0-0-0-0-5-7------0-0-0-0-0-0-0-----------------|
PM|-x-x-x-----x-x---x---x----------x-x-x---x---x-----------------|

 ||Guitar I (2:36-2:40)
D||--------------------------------------------------------------|
A||--------------------------------------------------------------|
F||--------------------------------------------------------------|
C||--------------------------------------------------------------|
G||-------0-------0---0-------5-7--------0---0---5h8p5h8-4h7p4h7-|
C||-0-0-0-0---0-0-0-0-0-0-5-7------0-0-0-0-0-0-0-----------------|
PM|-x-x-x-----x-x---x---x----------x-x-x---x---x-----------------|

 ||Guitar I (2:40-2:44)
D||--------------------------------------------------------------|
A||--------------------------------------------------------------|
F||--------------------------------------------------------------|
C||--------------------------------------------------------------|
G||-------0-------0---0-------5-7--------0---0---5h8p5h8-4h7p4h7-|
C||-0-0-0-0---0-0-0-0-0-0-5-7------0-0-0-0-0-0-0-----------------|
PM|-x-x-x-----x-x---x---x----------x-x-x---x---x-----------------|


 End Verse V
Verse VI:
   Guitar I (2:45-2:48)
D||--------------------------------------------------------|
A||--------------------------------------------------------|
F||--------------------------------------------------------|
C||--------------------------------------------------------|
G||---555444555777555777888777888101010888-5h8p5h8-4h7p4h7-|
C||-0------------------------------------------------------|


   Guitar I (2:49-2:53)
D||--------------------------------------------------|
A||--------------------------------------------------|
F||--------------------------------------------------|
C||--------------------------------------------------|
G||---5554445557775557778887775554*--5h8p5h8-4h7p4h7-|
C||-0------------------------------------------------|
                                        End Verse VI
Verse VII:
   Guitars I (2:54-2:58)
D||------------------------------------------------------------------|
A||------------------------------------------------------------------|
F||------------------------------------------------------------------|
C||------------------------------------------------------------------|
G||-5-----5---5---8---7---10---8p7------5---5---5h7------4---4---4h5-|
C||---0-0---0---0---0---0----0------8-8---8---8------7-7---7---7-----|
PM|---x-x---x---x---x---x----x------x-x---x---x------x-x---x---x-----|

   Guitars I (2:59-3:03)
D||---------------------------------------------------------------|
A||---------------------------------------------------------------|
F||---------------------------------------------------------------|
C||---------------------------------------------------------------|
G||-5-----5---5---8h12-8h12-7h10-7h10-----7778881010108887775554*-|
C||---0-0---0---0----------------------888------------------------|
PM|---x-x---x---x-------------------------------------------------|

   Guitar I (3:03-3:07)
D||------------------------------------------------------------------|
A||------------------------------------------------------------------|
F||------------------------------------------------------------------|
C||------------------------------------------------------------------|
G||-5-----5---5---8---7---10---8p7------5---5---5h7------4---4---4h5-|
C||---0-0---0---0---0---0----0------8-8---8---8------7-7---7---7-----|
PM|---x-x---x---x---x---x----x------x-x---x---x------x-x---x---x-----|

   Guitar I (3:08-3:11)
D||-----------------------------------------------------------------|
A||-----------------------------------------------------------------|
F||-----------------------------------------------------------------|
C||-----------------------------------------------------------------|
G||-5-----5---5---8h12-8h12-7h10-7h10-----777888101010888-7--5v--4v-|
C||---0-0---0---0----------------------888--------------------------|
PM|---x-x---x---x---------------------------------------------------|
           End Verse VII:

Outro:
   Guitar I (3:12-3:18)
D||-------------------------------------------------------------------------------------|
A||-------------------------------------------------------------------------------------|
F||-------------------------------------------------------------------------------------|
C||-------------------------------------------------------------------------------------|
G||-5-------5--------5/8--7--8--8/10--8--7h8p0---------7h8---5h7p5----------5h7---4h5p4-|
C||-----000-----000-----------------------------8--888--------------7--777--------------|
PM|-----xxx-----xxx--------------------------------xxx-----------------xxx--------------|

   Guitar I (3:19-3:24)
D||--------------------------------------------------------------------------------|
A||--------------------------------------------------------------------------------|
F||--------------------------------------------------------------------------------|
C||--------------------------------------------------------------------------------|
G||-5-------5-------8h10---10h12---8h10p8p7----10/12--10--8h10p8----8/10--8--7h8p7-|
C||-----000-----000--------------------------8--------------------7----------------|
PM|-----xxx-----xxx----------------------------------------------------------------|

   Guitar I (3:25-3:30)
D||-------------------------------------------------------------------------------------|
A||-------------------------------------------------------------------------------------|
F||-------------------------------------------------------------------------------------|
C||-------------------------------------------------------------------------------------|
G||-5-------5--------5/8--7--8--8/10--8--7h8p0---------7h8---5h7p5----------5h7---4h5p4-|
C||-----000-----000-----------------------------8--888--------------7--777--------------|
PM|-----xxx-----xxx--------------------------------xxx-----------------xxx--------------|

   Guitar I (3:31-3:37)
D||--------------------------------------------------------------------------------|
A||--------------------------------------------------------------------------------|
F||--------------------------------------------------------------------------------|
C||--------------------------------------------------------------------------------|
G||-5-------5-------8h10---10h12---8h10p8p7----10/12--10--8h10p8----8/10--8--7h8p7-|
C||-----000-----000--------------------------8--------------------7----------------|
PM|-----xxx-----xxx----------------------------------------------------------------|


   Guitars I (3:38-3:42)
D||------------------------------------------------|
A||------------------------------------------------|
F||------------------------------------------------|
C||-0----(0)----(0)----(0)----(0)----(0)----(0)----|
G||-0----(0)----(0)----(0)----(0)----(0)----(0)----|
C||-0----(0)----(0)----(0)----(0)----(0)----(0)----|
Tap to rate this tab
# A B C D E F G H I J K L M N O P Q R S T U V W X Y Z