Song name
# A B C D E F G H I J K L M N O P Q R S T U V W X Y Z

As Blood Runs Black - Chug Chug tab

			     Chug Chug - As Blood Runs Black 
Tabbed by:Hernando
Email: fat.boy.144@hotmail.com


Tuning:Drop C: CGCFAD

I don't think theres any good tabs for this so i hope this helps.


Intro

D|-------------------------|
A|-------------------------|
F|-------------------------|
C|---0-3-2-3-5~-3-2-3------|
G|---0-3-2-3-5~-3-2-3------|
C|---0-3-2-3-5~-3-2-3------|
     . . . .    . . .

(0:02-0:17)
tremolo pick these
|-----------------------|     |----------------------------------------|
|-----------------------|     |----------------------------------------|
|-----------------------|     |-------------5--------------------------|
|-----------------------|  x2 |-7--5--7--------8--7----7--5--7---------|
|--5--4--5-----5--4--7--|     |----------8----------------------8--*7--|
|-----------7-----------|     |----------------------------------------|


(0:18-0:26)
tremolo pick single fret notes
|-----------------------------------------------------------------------------|
|-----------------------------------------------------------------------------|
|-----------------------------------------------------------------------------|
|-0--------------------------------------8------------------------------------|
|-0-0000-0000-0000-0000--5-4-5-1-5-4-5---8-8888-8888-8888-8888--8-7-8-10-8-7-8|
|-0-0000-0000-0000-0000------------------8-8888-8888-8888-8888----------------|
  . .... .... .... ....                  . .... .... .... ....

(0:27-0:34)
tremolo pick these
|-----------------------|     |----------------------------------------|
|-----------------------|     |----------------------------------------|
|-----------------------|     |-------------5--------------------------|
|-----------------------|  x2 |-7--5--7--------8--7----7--5--7---------|
|--5--4--5-----5--4--7--|     |----------8----------------------8--*7--|
|-----------7-----------|     |----------------------------------------|


(0:35-1:02)
|---------------------------|    |------------------------------------------------------|
|---------------------------|    |------------------------------------------------------|
|---------------------------|    |------------------------------------------------------|
|-0-------------------------| x5 |-0-------------0~--12\\\\\\--0------------------------| x2
|-0-00000-00-00-00-00-00000-|    |-0-00000-00-00-0~--12\\\\\\--0-00000-00-00-00-00-00000|
|-0-00000-00-00-00-00-00000-|    |-0-00000-00-00-0~--12\\\\\\--0-00000-00-00-00-00-00000|
  . ..... .. .. .. .. .....        . ..... .. ..               . ..... .. .. .. .. .....

(1:03-1:28)
|------------------------------------------------------------------------|
|------------------------------------------------------------------------|
|------------------------------------------------------------------------|
|------------------------------------------7-7---------------------------| x3
|-00-8-8-7-10-8-7h8p7---8-8-7-10-8-7h8p7-------8-10-8-8h10---7-5-7-8-*7--|
|-00------------------0------------------8-----------------7-------------|
   ..

(1:29-1:44)
Solo


After the solo, play the intro again.
(1:45-1:47)
D|-------------------------|
A|-------------------------|
F|-------------------------|
C|---0-3-2-3-5~-3-2-3------|
G|---0-3-2-3-5~-3-2-3------|
C|---0-3-2-3-5~-3-2-3------|
     . . . .    . . .

And that goes in to this
(1:47-1:59)
tremolo pick these
|------------------------------|
|------------------------------|
|------------------------------|
|----------------------5-3-2-3-| x3
|-5-4-5---5-4-7--5-4-5-5-3-2-3-|
|-------7--------------5-3-2-3-|
                       . . . .

(2:00-2:14)
|-----------------|
|-----------------|
|-----------------|
|-5-3-2-3-7-3-2-3-| x8
|-5-3-2-3-7-3-2-3-|
|-5-3-2-3-7-3-2-3-|
  . . . .   . . .

(2:15-2:28)
|----------------------------------------------------------------------------------------|
|----------------------------------------------------------------------------------------|
|----------------------------------------------------------------------------------------|
|----------------------------------------------------------------------------------------|
|-000-000--000--000--000-000--000--000--000-000--000--000--000-000-(drum fill)----00-----|
|-000-000--000--000--000-000--000--000--000-000--000--000--000-000----------------00-----|
  ... ...  ...  ...  ... ...  ...  ...  ... ...  ...  ...  ... ...                ..

(2:29-2:40)
|-------------------------------------|
|-------------------------------------|
|-------------------------------------|
|-------------------------------------| x2
|-000-000--000--00--000-000--000--0-0-|
|-000-000--000--00--000-000--000--0-0-|
  ... ...  ...  ..  ... ...  ...  . .

(2:41-2:53)
|----------------------------------------------------------------------------------------------|
|----------------------------------------------------------------------------------------------|
|----------------------------------------------------------------------------------------------|
|----------------------------------------------------------------------------------------------|
|-000-000--000--00--000-000--5-4-0-/8-7-5-7-5-4--000-000--000--0-0--000-000--5-4-0-/8-7-5-7-5-4|
|-000-000--000--00--000-000----------------------000-000--000--0-0--000-000--------------------|
  ... ...  ...  ..  ... ...                      ... ...  ...  . .  ... ...

(2:44-3:18)
|--------------------------------------------------------|
|--------------------------------------------------------|
|--------------------------------------------------------|
|-0-0-0----------------------0-0-0-0---------------------|
|-0-0-0--5-4-0-/8-7-5-7-5-4--0-0-0-0--5-4-0-/8-7-5-7-5-4-|
|-0-0-0----------------------0-0-0-0---------------------|
  . . .                      . . . . 

(3:19-3:31)
|----------------------------------------------------------|
|----------------------------------------------------------|
|----------------------------------------------------------|
|-0-0-0--7-6-2-/10-9-7-9-7-6--0-0-0-0--7-6-2-/10-9-7-9-7-6-|
|-0-0-0--5-4-0-/8--7-5-7-5-4--0-0-0-0--5-4-0-/8--7-5-7-5-4-|
|-0-0-0-----------------------0-0-0-0----------------------|
  . . .                       . . . .

(3:32-3:41)
|--------------------------------------------------------|
|--------------------------------------------------------|
|--------------------------------------------------------|
|-0-0-0----------------------0-0-0-0---------------------|
|-0-0-0--5-4-0-/8-7-5-7-5-4--0-0-0-0--5-4-0-/8-7-5-7-5-4-|
|-0-0-0----------------------0-0-0-0---------------------|
  . . .                      . . . .                                       

End with

|-----------------------------|
|-----------------------------|
|-----------------------------|
|-000000----------------------|
|-000000--5-4-0-/8-7-5-7-5-*7-|
|-000000----------------------|
  ......


End.
Hope that helped.

| /  slide up
| \  slide down
| h  hammer-on
| p  pull-off
| ~  vibrato
| *  pinch harmonic
| .  palm mute note
===============================================================================
Tap to rate this tab
# A B C D E F G H I J K L M N O P Q R S T U V W X Y Z