Song name
# A B C D E F G H I J K L M N O P Q R S T U V W X Y Z

As Blood Runs Black - Hester Prynne tab

I'm not sure if this is 100% right, but it should be close :]
~Sarah 

Tuning-Drop C

||-------------------------------------------------------------------||
||-------------------------------------------------------------------||
||-------------------------------------------------------------------||
||-------------------------------------------------------------------||
||-------------------------------------------------------------------||
||-000---4-5-4---5-8-5---7-10-7---8-12-8---10-13-10---8-12-8---7-10-7||
Then Repeat

||--------------------------------------------||
||--------------------------------------------||
||--------------------------------------------||
||--------------------------------------------||
||----7-8-7--7-10-7----7-8-7--7-10-7----7-8-7-||
||-888--------------888--------------888------||

||-----------------------------------------------------||
||-----------------------------------------------------||
||-----------------------------------------------------||
||-----------------------------------------------------||
||-------7-8-7--7-10-7-------7-8-7--7-10-7-------7-8-7-||
||-101010--------------101010--------------101010------||
   ^yes they're 10's

||---------------------------------------------------------------||
||---------------------------------------------------------------||
||---------------------------------------------------------------||
||---------------------------------------------------------------||
||-5-8-5-8----------5-8-5-8---------4-7-4-7-------4-7-4-7--------||
||---------8-11-8-11-------8-11-8-11-------5-8-5-8-------5-8-5-8-||
Repeat

(octive higher part)
||------------------------------------------------------------------||
||------------------------------------------------------------------||
||-7-10-7-10---------7-10-7-10---------6-9-6-9-------6-9-6-9--------||
||----------8-11-8-11---------8-11-8-11-------5-8-5-8-------5-8-5-8-||
||------------------------------------------------------------------||
||------------------------------------------------------------------||



||--------------------------------------------||
||--------------------------------------------||
||--------------------------------------------||
||--------------------------------------------||
||--------------------------------------------||
||-000000000-000-000-000-000------------------||
Repeat a few times

||----------------------------------------------------------------------||
||----------------------------------------------------------------------||
||----------------------------------------------------------------------||
||-----------------------------------------------7-5--------------------||
||------5-3-5--5----3-5-3----------------8-7-8------8-7-8-7-5-----------||
||-0-0---0----0-0-0------5-3-0-------0-0--0---0-0-----------------------||

||------------------------------------------------||
||------------------------------------------------||
||------------------------------------------------||
||-------------------*3-------------------*8------||
||-----5-3-5h-----3-5-------8-7-8h-----7-8--------||
||--0-0-0-----0-0--------0-0-0------0-0-----------||

||--------------------------------------------||
||--------------------------------------------||
||--------------------------------------------||
||--------------------------------------------||
||----5-3-5---5-8-5-3-----8-7-8---8-10-8-7----||
||-0-0-0---0-0-0-0-0---0-0-0---0-0-0--0-0-----||

Then repeat the first riff a few times

||--------------------------------------------||
||-------------------------------------------.||
||--------------------------------------------||
||--------------------------------------------||
||-------------------------------------------.||
||-0000-0-0000-0000-0-0000-*3-----------------||

I don't know the sweep part

||--------------------------------------------||
||--------------------------------------------||
||--------------------------------------------||
||--------------------------------------------||
||---8-787-----8-787-----8-787----------------||
||-00-----8--00-----7--00-----8-10-8-*7-------||


||----------------------------------------------------------------------||
||----------------------------------------------------------------------||
||----------------------------------------------------------------------||
||----------------------------------------------------------------------||
||---8-7-5-*7------8-7-5-*8------8-7-5-*7------8-7-5-*7-----------------||
||-00-0-0----*7--00-0-0----*8--00-0-0----*7--00-0-0----*7---8h--7-------||


Then theres the breakdown at the end 
but you can figure that out
Tap to rate this tab
# A B C D E F G H I J K L M N O P Q R S T U V W X Y Z