Song name
# A B C D E F G H I J K L M N O P Q R S T U V W X Y Z

As Blood Runs Black - Before The Break Of Dawn tab

Help us improve GuitareTab! Take a short survey!
This has a little bit of the distortion part for the people that have asked me.





Track 1
     H        H           Q    E  E   E  E    E   E   
D||--------------------|-----------------------------|
A||-----------6--------|--L----L--6S--8--8S--10---L--|
F||-----------7--------|--L----L--7S--9--9S--10---L--|
C||--------------------|-----------------------------|
G||--0-----------------|-----------------------------|
C||--0-----------------|-----------------------------|


  E  E  E  E  E  S   S  E  E     E  E  E   E  E  E  E   E   
------------------------------|----------------------------|
-----L------------------------|----------------------------|
-----------------7h-10p-7-----|----------------------------|
--------8--8---------------8--|--7--------10--7--7--8------|
------------------------------|------------------------10--|
-----8--------8---------------|--------7-------------------|


  E  Q    E  E  E  E  E     E  E  E  S  S  E  Q    Q     
-------------------------|------------------------------|
-------------------------|------------------------------|
-------------------------|------------------------------|
----------5--7--5--8--7--|--5--7--5--3h-5p-3------------|
--8----------------------|--------------------5----3----|
-----5-------------------|------------------------------|


  S S E  S S E  E   E   Q       S S E  S S E  E  E   Q       H        H         
-----------------------------|----------------------------|--------------------|
-----------------------------|----------------------------|-----------6--------|
-----------------------------|----------------------------|-----------7--------|
--------------------8S--7----|-------------------7S--5----|--------------------|
-------------------10S--8----|-------------------8S--7----|--0-----------------|
--3-3-3--3-3-3---------------|--2-2-2--2-2-2--------------|--0-----------------|


  Q    E  E   E  E    E   E     E  E  E  E  E  S   S  E  E   
-----------------------------|------------------------------|
--L----L--6S--8--8S--10---L--|-----L------------------------|
--L----L--7S--9--9S--10---L--|-----------------7h-10p-7-----|
-----------------------------|--------8--8---------------8--|
-----------------------------|------------------------------|
-----------------------------|-----8--------8---------------|


  E  E  E   E  E  E  E   E     E  E  E  E  E  E  E  E   
----------------------------|--------------------------|
----------------------------|--------------------------|
----------------------------|--------------------------|
--7--------10--7--7--8------|--------5-----8--7--5--7--|
------------------------10--|--8-----------------------|
--------7-------------------|-----5-----5--------------|


  E  E  E  E  E  E  E  Q        S S E  S S E  E   E   Q     
-----------------------------|-----------------------------|
-----------------------------|-----------------------------|
-----------------------------|-----------------------------|
--5--3--5--3--2--3--2--------|--------------------8S--7----|
-----------------------5~----|-------------------10S--8----|
-----------------------------|--3-3-3--3-3-3---------------|


  S S E  S S E  E  E   Q       S S S S S S S S S S  S S S  S S  S  
----------------------------|-------------------------------------|
----------------------------|-------------------------------------|
----------------------------|-------------------------------------|
-------------------7S--5----|---------------------------8p-7------|
-------------------8S--7----|------8-5-8-5-----7-8-10-8------8p-7-|
--2-2-2--2-2-2--------------|--0-0---------0-0--------------------|


  S S S S S S S S S S  S S  S  S  S  S    S S S S S S S S S S S S S S E   
---------------------------------------|---------------------------------|
---------------------------------------|---------------------------------|
---------------------------------------|---------------------------------|
---------------------------10p-8-------|------7-8-7-------7-8-7-5--------|
------8-5-8-5-----7-8-10-8-------10p-8-|--------------------------8-7-8--|
--0-0---------0-0----------------------|--8-8-------8-8-8----------------|


  S S  S S  S S S S  S S  S S  S S  S S        
----------------------------------------|----||
----------------------------------------|----||
----------------------------------------|----||
--------------------12-8-12-8-11-7-11-7-|----||
------10-7-10-7-------------------------|----||
--7-7-----------7-7---------------------|----||




Duration Legend
---------------
W - whole
H - half
Q - quarter
E - 8th
S - 16th
T - 32nd
X - 64th
. - note dotted
|-n-|  - n-tuplets


Tablature Legend
----------------
L - tied note
x - dead note
g - grace note
(n) - ghost note
> - accentuded note
NH - natural harmonic
AH - artificial harmonic
TH - tapped harmonic
SH - semi harmonic
PH - pitch harmonic
h - hammer on
p - pull off
b - bend
br - bendRelease
pb - preBend
pbr - preBendRelease
brb - bendReleaseBend
\n/ - tremolo bar dip
\n - tremolo bar dive
-/n - tremolo bar Release up
/n\ - tremolo bar inverted dip
/n - tremolo bar return
-\n - tremolo bar Release down
S - shift slide
s - legato slide
/ -  slide into from below or out of upwards
\ -  slide into from above or out of downwards
~ - vibrato
W - wide vibrato
tr - trill
TP - tremolo picking
T - tapping
S - slap
P - pop
< - fade in
^ - brush up
v - brush down
Related for Before The Break Of Dawn tab