Song name
# A B C D E F G H I J K L M N O P Q R S T U V W X Y Z

As Blood Runs Black - Pouring Reign tab

Pouring Reign
By As Blood Runs Black

Tuning Low To High : C G C F A D

(0:00 - 1:49)
D------------0---------------------------------------0-------------------0---|
A----------8---8---8---------10--------8----------12---12---12---------5---5-|
F--------0-------0---------0---------0----------0---------0----------0-------|
C------5-----------------7---------7---------10--------------------2---------|
G----7----------------/9--------10--------12---------------------3-----------|
C----------------------------------------------------------------------------|

D--------------0----------------7--------| Repeat Untill---|
A---5--------0---0---0--------0---0------|              ---|
F-0--------0-------0--------0-------0----|              ---|
C--------5----------------5--------------|              ---|
G------7----------------7----------------|              ---|
C----------------------------------------------------------|              \ /

         (1:49 - 2:46)
I didn't have time to figure out the number of times each chord is played so here
they are in order.

D--0-------------0------0-------0--------0----------0------0----0----0----7-|
A--8-------------10-----8-------12-------13---------5------3----3----0----0-|
F--0-------------0------0-------0--------0----------0------2----0----0----0-|
C--5-------------7------7-------10-------10---------2------4----4----5----5-|
G--7-------------9------10------12-------12---------3------5----5----7----7-|
C---------------------------------------------------------------------------|

D--0-------------0------0-------0--------0----------0------0----0----0----7-|
A--8-------------10-----8-------12-------13---------5------3----3----0----0-|
F--0-------------0------0-------0--------0----------0------2----0----0----0-|
C--5-------------7------7-------10-------10---------2------4----4----5----5-|
G--7-------------9------10------12-------12---------3------5----5----7----7-|
C---------------------------------------------------------------------------|

D--0-------------0------0-------0--------0----------0------0----0----0------|
A--8-------------10-----8-------12-------13---------5------3----3----0------|
F--0-------------0------0-------0--------0----------0------2----0----0------|
C--5-------------7------7-------10-------10---------2------4----4----5------|
G--7-------------9------10------12-------12---------3------5----5----7------|
C---------------------------------------------------------------------------|

     (2:46 - 2:50) Bass Fill

     (2:50 - 3:25)

D------------0---------------------------------------0-------------------0---|
A----------8---8---8---------10--------8----------12---12---12---------5---5-|
F--------0-------0---------0---------0----------0---------0----------0-------|
C------5-----------------7---------7---------10--------------------2---------|
G----7----------------/9--------10--------12---------------------3-----------|
C----------------------------------------------------------------------------|

D--------------0----------------7--------| Repeat Untill Fade Out
A---5--------0---0---0--------0---0------|
F-0--------0-------0--------0-------0----|
C--------5----------------5--------------|
G------7----------------7----------------|
C----------------------------------------|

This is my first tab so please if theres stuff wrong tell me and ill fix it. Thnx.
Tap to rate this tab
# A B C D E F G H I J K L M N O P Q R S T U V W X Y Z