Song name
# A B C D E F G H I J K L M N O P Q R S T U V W X Y Z

As Blood Runs Black - My Fears Are Now Phobias tab

D||--------------------------------------------------|
A||--------------------------------------------------|
F||--------------------------------------------------|
C||--12--11--12--14--12--14--15--14--15--17--15--17--|
G||--------------------------------------------------|
C||--------------------------------------------------|

                                     
------------------------------------|
------------------------------------|
------------------------------------|
--19--17--15--17--15--14--12~-------|
------------------------------------|
------------------------------------|

                                                       
--13-17-13------------------12-15-12------------------|
------------15------------------------13--------------|
----------------14--14--14----------------12--12--12--|
------------------------------------------------------|
------------------------------------------------------|
------------------------------------------------------|

                                                
--10-13-10------------------8-12-8-------------|
------------11----------------------10---------|
----------------10--10--10--------------9/-----|
-----------------------------------------------|
-----------------------------------------------|
-----------------------------------------------|

                                                                        
-----------------------------------|-----------------------------------|
------------------10---------------|------------------10---------------|
--7----10----9----------10----9~---|--7----10----9----------10----9~---|
-----------------------------------|-----------------------------------|
-----------------------------------|-----------------------------------|
-----------------------------------|-----------------------------------|

                                                                           
--12--9------9----------------------------|-------------------------------|
---------11-----11--8--11--8-----8--------|-------------------------------|
------------------------------9-----9--6--|--9--12--9--7--10--7--6~-------|
------------------------------------------|-------------------------------|
------------------------------------------|-------------------------------|
------------------------------------------|-------------------------------|

                                                   
----------------------------13-17-13--------------|
--------------14-15-14----------------15----------|
----------14------------15----------------14------|
------15------------------------------------------|
--17----------------------------------------------|
--------------------------------------------------|

                                                   
----------------------------13-17-13--------------|
--------------14-15-14----------------15----------|
----------14------------15----------------14------|
------15------------------------------------------|
--17----------------------------------------------|
--------------------------------------------------|

                                                 
------------------------------------------------|
--------------10-11-10------10------------------|
----------10------------12------12--10--12------|
------12----------------------------------------|
--13--------------------------------------------|
------------------------------------------------|

                                                       
------------------------------------------------|----||
--------------10-11-10------10------------------|----||
----------10------------12------12--10--12------|----||
------12----------------------------------------|----||
--13--------------------------------------------|----||
------------------------------------------------|----||
Tap to rate this tab
# A B C D E F G H I J K L M N O P Q R S T U V W X Y Z