Song name
# A B C D E F G H I J K L M N O P Q R S T U V W X Y Z

As Cities Burn - Wrong Body tab

Help us improve GuitareTab! Take a short survey!
Here is the intro that repeats through most of the song if you have any problems E-mail 
at barsalot5365@gmail.com

let each note ring so the /5 would actually be a slide from the ringing 8

E[--------------------------------------------------------------------]
B[--------------------------------------------------------------------]
G[--------0-----------0--------------0--------0-----------0--------0--]
D[-----12---12-----12------12--12/7----7----7------7--7/8---8----8----]
A[--10---------10------------------------10------------------10-------]
E[--------------------------------------------------------------------]

E [------------------------------------------------------------------]
B [------------------------------------------------------------------]
G [--------------0-------0---------0--------0-------0-------0--------]
D [--------/5------5---5-------------5----5---5---5---5---5---5------]
A [--10--10/8--------8------8--8/6------6-------6-------6------------]
E [------------------------------------------------------------------]
Related for Wrong Body tab