Song name
# A B C D E F G H I J K L M N O P Q R S T U V W X Y Z

As Cities Burn - Widow tab

REMINDERSSS
-Standard tuning
-capo on the 3rd fret

intro
guitar 1(x2)the strumming is a bit awkward but its easily figured out
|-3~--3~---3~--3~--3~-----|
|-4~--3~---3~--4~--3~-----|
|-5~--3~---5~--5~--5~-----|
|-5~--5~---6~--5~--6~-----|
|-3~--5~---6~--3~--6~-----|
|-----3~---4~------4~-----|

guitar 2
|-----------------------------------------------------------------------|
|-------------8---------------------------------------8------8/13-10----|
|--------8h10------7-8---8/10------------------8h10p8---8------------10-|
|---8/12--------5-8----8---------5h8-5h8p5p3--------------10------------|
|-6------------------------------------------5--------------------------|
|------------------------------4----------------------------------------|

|------------------------------------------------------------------------|
|-------------8---------------------------------------8-------11---11----|
|--------8h10------7-8---8/10------------------8h10p8---8--------7-------|
|---8/12--------5-8----8---------5h8-5h8p5p3---------------10------------|(8)
|-6------------------------------------------5---------------------------|
|------------------------------4-----------------------------------------|

verse 1(dead man were you ever..)
|-3---3---3---3--------|
|-4---3---6---6--------|
|-5---5---3---3--(x2)--|
|-5---6---5---3--------|
|-3---6---6---5--------|
|-----4-------6--------|

verse 1 ending(its just something that..)
|-3---3---3~-|
|-4---3---4~-|
|-5---5---5~-|
|-5---6---5~-|
|-3---6---3~-|
|-----4------|

verse 2(my god..)
|-3---3---3---3--|
|-6---6---3---3--|
|-3---3---5---7--|
|-5---3---6---8--|
|-6---5---6---8--|
|-----6---4---6--|

bridge(and my mothers heart breaks..)
|------------------------------------------------------------|
|-----4p3------11p3------6p3-----9-----4p3-----3-------------|
|------------7-----------------7---------------------5-5---5-|
|---5------8----------5------8-------4-------5---------------| (x3)
|-3-----------------5--------------3-------5-------6---------|
|------------------------------------------------4-------4---|

verse 3(dead man is it being high..)
|-3---3---3---3----|
|-4---3---6---6----|
|-5---5---3---3----|
|-5---6---5---3----|
|-3---6---6---5----|
|-----4-------6----|

|-3---3---3---3----|
|-4---3---3---3----|
|-5---3---7---3----|
|-5---5---8---5----|
|-3---5---8---5----|
|-----3---6---3----|

ending(but i believe there is something..)
|-3---3--|
|-4---3--|
|-5---5--| until end
|-5---6--|
|-3---6--|
|-----4--|

(my god what a world you love)
|---3~--------------------3~---|
|---4~--------------------3~---|
|---5~--------------------3~---|
|---5~--------------------5~---|
|---3~--------------------5~---|
|-------------------------3~---|

there you go.
Tap to rate this tab
# A B C D E F G H I J K L M N O P Q R S T U V W X Y Z