Song name
# A B C D E F G H I J K L M N O P Q R S T U V W X Y Z

As Cities Burn - Timothy tab

as cities burn
timothy
come now sleep

\ slide down
/ slide up
p pull off
h hammer on
^ rake
s staccato picking
~ let ring
for timing/rhythm, listen to song and line up the @#$%&’s

INTRO: 

Guitar 1
e|---------0---0---0-3p2--------------------------------------------|
B|---------0---0---0-----3---0---0---0------------------------------|
G|-------0---0---0-----------5---5---5-7p5-4---4---4---4-4----------| 
D|-5\4-2-----2---2---------4---4---4-----------5---5---5-5----------|x2
A|-------------------------------------------7---7---7---7----------|
E|------------------------------------------------------------------|
       #                 @                 $             ^

guitar 2
e|----------0-------------0--------12s~----------------------------|
B|-8s/10s\5s0--------------3/--10s---------------------------------|
G|----------7----------4~---4/-------------------------------------| 
D|----------9b~-5-/7-----------------------------------------------|
A|-------------------7---------------------------------------------|
E|-----------------------------------------------------------------|
            #   @      $

More later…
Tap to rate this tab
 
# A B C D E F G H I J K L M N O P Q R S T U V W X Y Z