Guitaretab - guitar tabs
Song name
# A B C D E F G H I J K L M N O P Q R S T U V W X Y Z

As Cities Burn - Errand Rum tab

----------------------------------------------------------------------------
                          ERRAND RUM - As cities burn
----------------------------------------------------------------------------
Tuning : standard

Iím not 100% sure this is right, so feel free to change what you want

e|--7-7p5------------------7----7-7-5-7-5-3-0----------------------------------|
B|----------8------------9-----------------------------------------------------|
G|------------9---9-7-9--------------------------------------------------------|
D|-----------------------------------------------------------------------------|
A|-----------------------------------------------------------------------------|
E|-----------------------------------------------------------------------------|
[ Tab from: http://www.guitaretab.com/a/as-cities-burn/191124.html ]
e|--7-7p5-----------------9-6----5-5p3---------9-7-6-4-2--|
B|----------8------------------------------5--------------| ( some parts sound off
G|-------------9---9-7-9----------------------------------|  because itís in a minor
D|--------------------------------------------------------|  key )
A|--------------------------------------------------------|
E|--------------------------------------------------------|

( play this at 0:31 )
e|--10-10-13-10-8---5-5-8-3----------------------------------------------------|
B|-----------------------------------------------------------------------------|
G|-----------------------------------------------------------------------------|
D|-----------------------------------------------------------------------------|
A|-----------------------------------------------------------------------------|
E|-----------------------------------------------------------------------------|

( 0:48 )
e|---6-6-4-9--6-6-4---6-6-4-9~ ------9-7-6-4-2---------------------------------|
B|-----------------------------------------------------------------------------|
G|-----------------------------------------------------------------------------|
D|-----------------------------------------------------------------------------|
A|-----------------------------------------------------------------------------|
E|-----------------------------------------------------------------------------|

| / slide up
| \ slide down
| h hammer-on
| p pull-off
| ~ vibrato
| + harmonic
| x Mute note
Related for Errand Rum tab