As Cities Burn - Contact tab

-------------------------------------------------------------------------------
			     Contact – As Cities Burn
-------------------------------------------------------------------------------
Tabbed by: Kade	
Email: koolkade10@aol.com	

This is how Cody Bonnette played this song in a video I saw.  It’s probably about 
90% correct.  Hope you enjoy it.


Tuning:D#G#C#F#A#d#


  0:47
d#|---------------0---------------------0--------------------0------------|
A#|--------------4---------------------4--------------------4-------------|
F#|------1h4----1---------------1h4---1--------------1h4---1--------------|
C#|--2h4-------2-----------2h4-------2----------2h4-------2---------------|
G#|-----------------------------------------------------------------------|
D#|-----------------------------------------------------------------------|

d#|----------------0---------|
A#|---------------0----------|
F#|--------------1-----------|        repeat 4x
C#|------2h4----2------------|  
G#|--0h4-------0-------------|
D#|--------------------------|
 
 2:22
d#|---0------------------------------------------------------------|
A#|---0------------------------------------------------------------|
F#|---1--------------------------------------13—13p11--------------|
C#|---2-------------------------9h12/13-------------------11-------|
G#|---0----2----------------9h11--------11-------------14-----2-2--|
D#|---0--------2-2-2-2-2-2-----------------------------------------|

  2:31
   Guitar 1
d#|-------------------------------------------------------------------------|
A#|-------------------------------------------------------------------------|
F#|---------9------------------9-----------------9------------------9-------|
C#|-11h9-11---11p9-----11h9-11---11p9----11h9-11---11p9-----11h9-11---11p9--|
G#|-------------------------------------------------------------------------|
D#|-------------------------------------------------------------------------|

D#|-------------------------------------------------------------------------|
A#|-------------------------------------------------------------------------|
F#|-11p9-11p9----9-----11p9—11p9----9-----11p9-11p9----9------9h11/13-11-9--|
C#|-----------11-----------------11-----------------11----9h11-------------9|
G#|-------------------------------------------------------------------------|
D#|-------------------------------------------------------------------------|

 



 3:40
d#|----------------------------------------------|
A#|---------14----12-----------------------------|
F#|----------------------13----------------------|
C#|-------11----11----11----11-------11----------|
G#|-0--------------------------12h14----\\9p7----|
D#|-------------------------------------------9--|

d#|-----------------------------------------------0------------------|
A#|---------14----12------------------------------0------------------|
F#|----------------------13-----------------------8--8/9--8/9--11/13-|
C#|-------11----11----11----11-------11-----------6--6/7--6/7---9/11-|
G#|----------------------------12h14----\\9p7-9p7-7------------------|
D#|------------------------------------------------------------------|

d#|----------------------------------------------|
A#|---------14----12-----------------------------|
F#|----------------------13----------------------|
C#|-------11----11----11----11-------11----------|
G#|-0--------------------------12h14----\\9p7----|
D#|-------------------------------------------9--|


d#|-----------------------------------------------0--0000-|
A#|---------14----12------------------------------0--0000-|
F#|----------------------13-----------------------8--9999-|
C#|-------11----11----11----11-------11-----------6--7777-|
G#|----------------------------12h14----\\9p7-9p7-7--9999-|
D#|-------------------------------------------------------|

d#|------------0---------------------0--------------------0---------------|
A#|------------4---------------------4--------------------4---------------|
F#|------1h4---1---------------1h4---1--------------1h4---1---------------|
C#|--2h4-------2-----------2h4-------2----------2h4-------2---------------|
G#|-----------------------------------------------------------------------|
D#|-----------------------------------------------------------------------|

d#|------------0-------------|
A#|------------0-------------|
F#|------------1-------------|        
C#|------2h4---2-------------|  
G#|--0h4-------0-------------|
D#|--------------------------|
 


     solo
d#|--------------------------------------------------------------------------|
A#|--------------------------------------------------------------------------|
F#|--9h11—9h11—9h11-11p9-----------------------------------------------------|
C#|----------------------9h11-11/13\11--------9------------------------------|
G#|------------------------------------11-9h11-11p9\7------------------------|
D#|---------------------------------------------------9--7-------------------|


d#|--------------------------------------------------------------------------|
A#|--------------------------------------------------------------------------|
F#|--11p9-----------------------9h11-11/13---11-11-11\9----------------------|
C#|-------9h11-11/13-13-13-9h11-------------------------9h11-11/13\11--------|
G#|-------------------------------------------------------------------11-----|
D#|--------------------------------------------------------------------------|

d#|--------------------------------------------------------------------------|
A#|--------------------------------------------------------------------------|
F#|---------------------11p9-----------------------9h11-11~---11-11-11p9-----|
C#|------9-------------------9h11-11/13-13-13-9h11---------------------------|
G#|--9h11-11p9\7-------------------------------------------------------------|
D#|--------------9--7--------------------------------------------------------|

d#|--------------------------------------------------------------------------|
A#|--------------------------------------------------------------------------|
F#|--------------------------------------11p9-----------------------9h11--/13|
C#|--9h11-11/13\11---------9------------------9h11-11/13-13-13-9h11----------|
G#|----------------11--9h11-11p9\7-------------------------------------------|
D#|--------------------------------9--7--------------------------------------|

d#|--------------------------------------------------------------------------|
A#|--11-11-11p9--9-9-9-------------------------------------------------------|
F#|--------------------11-11-11-11p9-9-9-9-----------------------------------|
C#|-----------------------------------------------9--------------------------|
G#|-----------------------------------------11-11---11-7/9-9~--2-------------|
D#|--------------------------------------------------------------2-2-2-2-2-2-|

d#|------------------------------------------0-|
A#|------------------------------------------0-|
F#|-------------------13—13p11---------------8-|
C#|------9h11/13-------------------13--------6-|
G#|--9h11--------11-------------14-----2-2---7-|
D#|--------------------------------------------|


| /  slide up
| \  slide down
| h  hammer-on
| p  pull-off
| ~  vibrato
| +  harmonic
| x  Mute note
===============================================================================

Tap to rate this tab
 
# A B C D E F G H I J K L M N O P Q R S T U V W X Y Z