Song name
# A B C D E F G H I J K L M N O P Q R S T U V W X Y Z

As Cities Burn - This Is It This Is It tab

Drop C# Tuning

[0:12]-[0:23]
|------------------------------------------------------|
|------------3-5-3---------------4p2p0-0h2h4-4p2p0-0---|
|-----4---4--------4----2------------------------------|
|--2-----------------5-------2h0-----------------------|
|-------------------------3~---------------------------|
|------------------------------------------------------|
|
|-----------------------------------|
|-----------3-5-3-------------------|
|-----4---4-------4-----2/7------7--|
|--2----------------5----------5----|
|----------------------------5------|
|-----------------------------------|


Tap to rate this tab
# A B C D E F G H I J K L M N O P Q R S T U V W X Y Z