Song name
# A B C D E F G H I J K L M N O P Q R S T U V W X Y Z

As Cities Burn - 84 Sheepdog tab

Drop C# Tuning.

|------5-------------------------------------------|
|------5--------------------------------10b--7b----|
|------5---9b~---9p7---9p7--------9b~---9----9-----|
|----2--------------9-----9p7----------------------|
|--4--------------------------7--------------------|
|--------------------------------------------------|

|-----------------------------------------------------------------|
|------------------------------5/7~--8--10-10--12-15-10h12p10\5~--|
|--9b~---9p7---9p7------------------------------------------------|
|------------9-----9p7---4-5-7------------------------------------|
|----------------------7------------------------------------------|
|-----------------------------------------------------------------|
Tap to rate this tab
# A B C D E F G H I J K L M N O P Q R S T U V W X Y Z