Song name
# A B C D E F G H I J K L M N O P Q R S T U V W X Y Z

As Cities Burn - Incomplete Is A Leech tab

Band- As Cities Burn
Song- Incomplete is a Leech
Website- www.ascitiesburn.com

      So this is my second as cities burn tab, im happy other guys are
 now tabbing as cities burn songs because they are SO much fun to play.
 This song sounds pretty correct so i hope you guys like it. I also put
 the intro of bloodsucker pt. 2 at the end :)

      Tuning- Drop D(Dadgbe)

Intro 
Guitar 1 (0:04)
E-----------------------------------|
B-----------------------------------|
G-----------------------------------|X2 The third time
D--5-7---10p9p7---7------33--333----| you go into verse 1
A--5-7----------10--7----33--333----|
D--5-7-------------------33--333----|

Intro
Guitar 2 (0:04)
E-----------------------------------------|
B-----------------------------------------|
G-----------------------------4-4-4-4-7-4-|X2 
D--5-7---10p9p7---7------33-3-------------| 
A--5-7----------10--7----33---------------|
D--5-7-------------------33---------------|

Verse 1
Guitar 1 (0:15)
E------------------------------------------------------|
B------------------------------------------------------|
G---------------9--------------------------------------|
D--5-7---3------5------3-----------------------00------|
A--5-7---3-x16--5-x16--3-x8--------------------00------|
D--5-7---3------5------3-----------------------00------|

(0:27)                                            (0:39)
E------------------------------------------------|-------|
B------------------------------------------------|-------|
G------------------------------------------------|---9---|
D---5/7--0--3-0-------------5/7--0--0-0----x2----|---7---|
A---5/7--0--3-0-------------5/7--0--0-0----------|---7---|  
D---5/7--0--3p0-------------5/7--0--0-0----------|---7---|
                                    . .

Verse 1
Guitar 2 (0:15)
E-------------------------------------------------------------|
B-------------------------------------------------------------|
G---------------9--------------445-94---------------5---5-----|
D--5-7---3------5------3-----3-----------------00-----5---5---|
A--5-7---3-x16--5-x16--3-x8--------------------00-------------|
D--5-7---3------5------3-----------------------00-------------|

(0:27)                                                   (0:39)
E-------------------------------------------------------|-------|
B-------------------------------------------------------|-------|
G----------------5-5-5-5-----------------5-5-5-5--------|---9---|
D---5/7--0--3-0---5-5-5-5---5/7--0--0-0---5-5-5-5---x2--|---7---|
A---5/7--0--3-0-------------5/7--0--0-0-----------------|---7---|  
D---5/7--0--3p0-------------5/7--0--0-0-----------------|---7---|
                                    . .

         Im not sure what to call this part of the song so ill just
     call it a loop, even though im probably way wrong haha. this 
     part is really fun to play with someone else

Loop                             Loop
Guitar 1 (0:43)                  Guitar 2 (0:43)
E-----------------|              E---------------|
B-----------------|              B-13p12-13p12---|
G---9--9--9--9----|              G---------------|
D----10-10-10-10--|X a lot       D---------------|x alot
A-----------------|              A---------------|
D-----------------|              D---------------|

Then end with 
Guitar 1  (1:00)                 Guitar 2  (1:00)                
E-----------|                    E----------|
B-----------|                    B-13-15-17-|
G--9-10-12--|                    G----------|
D-----------|                    D----------|
A-----------|                    A----------|
D-----------|                    D----------|



Bridge and Chorus
Guitar 1 (1:15)
E---------------------------|------------|
B--5------------------------|------------|
G----4-5-------5------------|------------|
D--------3/5-7---5-7-----2--|----3-22--0-| On chorus you just do
A---------------------0h3---|------------| this riff fast
D---------------------------|-33---------|

Chorus?
Guitar 2 (1:49)
E---------------------------------|
B---------------------------------|
G---------------------------------|
D---7-----5/7--3-----5/7-repeat---|
A---7-x8--5/7--3-x8--5/7----------|
D---7-----5/7--3-----5/7----------|

Chorus cont.
Guitar 2 (2:00)
E-------------------------------------|
B-------------------------------------|
G-------------------------------------|
D---77--357-777-5-3-33--357-777-5-3---|
A---77--357-777-5-3-33--357-777-5-3---|
D---77--357-777-5-3-33--357-777-5-3---|

Chorus cont.
Guitar 1 (2:00)
E---------------------------|
B--12p10--------------------|You just repeat that alot
G--------12--14-9-9---------|
D--------------------12p10--|
A---------------------------|
D---------------------------|

(2:10)
Just slide you pick down the strings then back up
very easy but sounds cool!

Ending
Guitar 1 and 2 (2:19)
E-----------|
B-----------|
G--9---5----|
D--7---3----|       I know, im too lazy to 
A--7---3----|write how many times the strum. 
D--7---3----|but typing tabs is exhausting...


BLOODSUCKERS!
Ender
Guitar 1 and 2 (2:41)
E------------------------------------------------------------------------|
B------------------11-11-11-----11-11-11-----7--7--7------7--7--7--------|
G------------------14-14-14-----14-14-14-----10-10-10-----10-10-10-------|
D---00---------00------------00-----------00-----------00----------------|
A---00---------00------------00-----------00-----------00----------------|
D---00---------00------------00-----------00-----------00----------------|



                          (BLOODSUCKER PT.2)

Intro
Guitar 1
E-10---10---|
B---8----8--|
G----8----8-|
D-----------| x2    
A-----------|
D-----------|

Verse 1
Guitar 2
E------------------------------|
B------------------------------|
G--7------5------3------5------|
D--5-x16--3-x16--1-x16--3-x16--|   
A--5------3------1------3------|
D--5------3------1------3------|


Slide up   /
slide down \
hammer on  h
pull off   p
bend       b
palm mute  .........
mute note  X

       On my last tab (Of want and misery:the nothing that kills) 
I said that As Cities Burn was breaking up. But if you look on there 
website it says that because they got so many e-mails saying how 
sad they were that as cities burn was brekaing up. that they decided 
to write one more record! so ignore what I said in my last tab......have fun playing this song :)

                                      Lyrics

    Unless you can part my ribs like the sea
and make stone beat, then there's no hope for me

unless the east never meets the west
unless you set my sin between your shoulderblades
and forget

part my ribs like the sea and change me
'cause stone doesn't beat
and rock hearts don't pump anything
but I've grown not to mind because at least
stone doesn't sling like blood
or spill like guts across the floor
where the bloodsuckers want more and more and more

Tap to rate this tab
# A B C D E F G H I J K L M N O P Q R S T U V W X Y Z