Song name
# A B C D E F G H I J K L M N O P Q R S T U V W X Y Z

As Cities Burn - Bloodsucker Part 2 tab

-------------------------------------------------------------------------------
			     Bloodsucker Part 2 - As Cities Burn
-------------------------------------------------------------------------------
Tabbed by:Joel
Email:coalrocket@yahoo.com

Finally Finished, most of it. Enjoy, comment and let me know what you think.

Tuning:Drop D

e|--10------10------10------10------10--------------------------------------|
B|-----8-------8-------8-------8-------8------------------------------------|
G|-------8-------8-------8-------8-------8----------------------------------|
D|--------------------------------------------------------------------------|
A|--------------------------------------------------------------------------|
E|--------------------------------------------------------------------------|

   Chorus
e|--------------------------------------------------------------------------|
B|--------------------------------------------------------------------------|
G|--------------------------------------------------------------------------|
D|-----5-----3----1----3----------------------------------------------------|
A|-----5-----3----1----3----x2------figure out the rhythm-------------------|
E|-----5-----3----1----3----------------------------------------------------|

        Stretch me out...
e|-------------------------------------|
B|-------------------------------------|
G|-------------------------------------|
D|-----(5-5-5)-5---(5)-5---------------|
A|-----(5-5-5)-5---(5)-5---------------|
E|-----(5-5-5)-5---(5)-5---------------|
       p.m.       p.m.

  Across the table...
e|-------------------------------------------8-10-13-----|
B|---------------------------6-----6-8-10-11-------------|
G|-------------------5--7--8-----------------------------|
D|-----------5--7--8-------------------------------------|
A|-------------------------------------------------------|
E|-------------------------------------------------------|

 And turn my insides... out
e|-------------------------------------|
B|-------------------------------------|
G|-------------------------------------|
D|-----(5-5-5)-5---(5)-5---------------|
A|-----(5-5-5)-5---(5)-5---------------|
E|-----(5-5-5)-5---(5)-5---------------|
       p.m.       p.m.

  Turn me into some oe else....
e|-------------------------------------------8-10-13-----|
B|---------------------------6-----6-8-10-11-------------|
G|-------------------5--7--8-----------------------------|
D|-----------5--7--8-------------------------------------|
A|-------------------------------------------------------|
E|-------------------------------------------------------|

 Someone more like yourself....
e|-------------------------------------|
B|-------------------------------------|
G|-------------------------------------|
D|-----(5-5-5)-5---(5)-5---------------|
A|-----(5-5-5)-5---(5)-5---------------|
E|-----(5-5-5)-5---(5)-5---------------|
       p.m.       p.m.

  :44
e|--------------------------|
B|----------------------6---|
G|--------------5--7--8-----|
D|------5--7--8-------------|
A|--------------------------|
E|--------------------------|


 and stretch me out, bother not with ties,
 i swear to lay still, at my becoming part of the machine
e|-------------------|
B|----------10-------|
G|-----7-------10----|play randomly through out those lines ^
D|-----x-------------|
A|-----5-------------|
E|-------------------|

then just play the chorus until thesolo then  breakdown, where it's...

Are you the man now...
e|-------------------------------------|
B|-------------------------------------|
G|-------------------------------------|
D|-----(5-5-5)-5---(5)-5---------------|
A|-----(5-5-5)-5---(5)-5---------------|
E|-----(5-5-5)-5---(5)-5---------------|
       p.m.       p.m.


thats most of it. i told you i would finish it up at some point. i'm missing one part of 
solo that i didn't feel like making, but feel free to add. let me know what you think.
Tap to rate this tab
# A B C D E F G H I J K L M N O P Q R S T U V W X Y Z