Song name
# A B C D E F G H I J K L M N O P Q R S T U V W X Y Z

As Cities Burn - Of Want And Misery The Nothing That Kills tab

yeah so i basicaly copied the other guys solo tab but the part before the solo is mostly 
but thank the other guy for the tough stuff he translated in the nothing that kill solo tab:)

Tuning-Standard  (Eadgbe)
E-----------------------------------------------10-------------------------|
B----------------10>12----12-12<10-14-12-10-8-7---7b8----------------------|
G-------------11--------------------------------------9<7-9>11-6b7---------|
D-7>9-9<5-7>9---------12-------------------------------------------9<7-9<7-|
A--------------------------------------------------------------------------|
E--------------------------------------------------------------------------|

(2:36-3:34)
Guitar 1
E--------------------------------------------------------------------------|
B--------------------------------------------------------------------------|
G-------------0------------------------------------------------------------|
D------4-------------------------------------------------------------------|
A--2-----------------------------------------------------------------------|
E--------------------------------------------------------------------------|

You repeat that for a while then guitar 2 comes in with
Guitar 2
(2:51)
E-----------------------------------17-------------------------------------|
B------------------------------14h15---15----------------------------------|
G--------------0---------12-16------------16-------------------------------|
D-------4------------------------------------------------------------------|
A--2-----------------------------------------------------------------------|
E--------------------------------------------------------------------------|
Repeat then the last time

E------------------------------------17-------------------17---------------|
B-------------------------------14h15--15-----------14h15------------------|
G--------------0----------12-16-----------16---12-16-----------------------|
D-------4------------------------------------------------------------------|
A--2-----------------------------------------------------------------------|
E--------------------------------------------------------------------------|


Solo Begins
(3:14-3:42)
E-------------------------------------------------------------------------|
B-----------------------10---------------10-10-10-10>12-12--15p12-12-12b--|
G------------------9h11-------------9h11----------------------------------|
D--7>9--9--9h11h12----------9h11h12---------------------------------------|
A-------------------------------------------------------------------------|
E-------------------------------------------------------------------------|


E--------------------------------------------------10-------10------10---|
B--12<10-10-10>14-14-14<12-12-12<10-10<8-8<7 7h8h10----7h8h10--7h8h10----|
G------------------------------------------------------------------------|
D------------------------------------------------------------------------|
A------------------------------------------------------------------------|
E------------------------------------------------------------------------|

E-----------------17-----------17-------------14h15h17--17p15p14---------|
B-7>->14--14h15p14-----14h15h17-------14h15h17---------------------------|
G------------------------------------------------------------------------|
D------------------------------------------------------------------------|
A------------------------------------------------------------------------|
E------------------------------------------------------------------------|


E------------------------------------------------------------------------|
B-14b--12-12<10-10<7b---7b-----------------------------------------------|
G----------------------------9<7----6h7p6--------------------------------|
D------------------------------------------9-9<7-7b--9<7b----------------|
A------------------------------------------------------------------------|
E------------------------------------------------------------------------|

Then the piano comes in for a long time
(4:36)
Guitar 2
E--------------------------------------|
B--------------------------------------|
G-----7------6------7-------4------6---|
D-------0------0------0-------0------0-|
A--------------------------------------|
E---7------5------7-------3------5-----|


E--------------------------------------|
B--------------------------------------|
G-----7------6------4-------4------4---|
D-------0------0------0-------0------0-|
A--------------------------------------|
E---7------5------3-------3------3-----|

I dont know if this song is in drop D or standard. I would guess drop D so heres the
D version

Alternate Guitar 2 Riff
E--------------------------------------|
B--------------------------------------|
G-----7------6------7-------4------6---|
D-------0------0------0-------0------0-|
A--------------------------------------|
E---9------7------9-------5------7-----|


E--------------------------------------|
B--------------------------------------|
G-----7------6------4-------4------4---|
D-------0------0------0-------0------0-|
A--------------------------------------|
E---9------7------5-------5------5-----|

(4:56)
Guitar 1
E-----------------|
B-----------------|
G---7----4--------|
D---7----4--5-----|
A---5----2--5-----|
d-----------5-----|

Guitar 1 end on
E--------|
B--------|
G---7----|
D---7----|
A---5----|
d--------|

Guitar 2 end on
E--------|
B--------|
G---11---|
D---X----|
A---9----|
d--------|

Slide up   >
slide down <
hammer on  h
pull off   p
bend       b
palm mute  .........
mute note  X
Tap to rate this tab
# A B C D E F G H I J K L M N O P Q R S T U V W X Y Z