Song name
# A B C D E F G H I J K L M N O P Q R S T U V W X Y Z

As Embers Fall - As Embers Fall-there Will Be Blood tab

#----------------------------------PLEASE NOTE---------------------------------#
#This file is the author's own work and represents their interpretation of the #
#song. You may only use this file for private study, scholarship, or research. #
#------------------------------------------------------------------------------##


Gtr I (C G C F A D) - Lead
Gtr II (C G C F A D) - Backup/Rhythm



  Q=200
  Gtr I
   E  E  E  E  E  E  E  E    E  E  E  E  E  E  E  E
|-------------------------|-------------16-15-13----|
|-11-------11-13-------13-|-14-------14----------16-|
|----10-10-------10-10----|----10-10----------------|
|-------------------------|-------------------------|
|-------------------------|-------------------------|
|-------------------------|-------------------------|


   E  E  E  E  E  E  E  E    E  E  E  E  E  E  E  E
|-------------------------|----------13-15-13--------|
|-14-------14-13-------13-|-16----------------16-----|
|----13-13-------13-13----|----15-15-------------13--|
|-------------------------|--------------------------|
|-------------------------|--------------------------|
|-------------------------|--------------------------|


  Gtr I
   E  E  E   E  E  E  E  E    E  E  E   E  E  E  E  E
|--------------------------|--------------16-15-13----|
|-11--------11-13-------13-|-14--------14----------16-|
|----10-10--------10-10----|----10-10-----------------|
|--------------------------|--------------------------|
|--------------------------|--------------------------|
|--------------------------|--------------------------|
|
| Gtr II
|  PM|                        PM|
|  E  E  H.                   E  E  H.
|--------------------------|--------------------------|
|--------------------------|--------------------------|
|--------------------------|--------------------------|
|--------------------------|--------------------------|
|--8--8--------------------|--8--8--------------------|
|--8--8--------------------|--8--8--------------------|


   E  E  E   E  E  E  E  E    E  E  E  E  E  E  E  E
|--------------------------|----------13-15-13--------|
|-14--------14-13-------13-|-16----------------16-----|
|----13-13--------13-13----|----15-15-------------13--|
|--------------------------|--------------------------|
|--------------------------|--------------------------|
|--------------------------|--------------------------|
|
|  PM|                        PM|               PM|
|  E  E  H.                   E  E  H           E  E
|--------------------------|--------------------------|
|--------------------------|--------------------------|
|--------------------------|--------------------------|
|--------------------------|--------------------------|
|-11-11--------------------|-10-10-------------11-11--|
|-11-11--------------------|-10-10-------------11-11--|


     E  E  E  E  E  E  E  E    E  E  E  E  E  E  E  E
||--------------------------|-------------16-15-13----|
||o-11-------11-13-------13-|-14-------14----------16-|
||-----10-10-------10-10----|----10-10----------------|
||--------------------------|-------------------------|
||o-------------------------|-------------------------|
||--------------------------|-------------------------|
|
|    E  E  E  E  E  E  E  E    E  E  E  E  E  E  E  E
||--------------------------|-------------------------|
||o-------------------------|-------------------------|
||--------------------------|-------------------------|
||--------------------------|-------------------------|
||o--8--8--8--8--8--8--8--8-|--8--8--8--8--8--8--8--8-|
||---8--8--8--8--8--8--8--8-|--8--8--8--8--8--8--8--8-|


   E  E  E  E  E  E  E  E    E  E  E  E  E  E  E  E
|-------------------------|----------13-15-13--------||
|-14-------14-13-------13-|-16----------------16----o||
|----13-13-------13-13----|----15-15-------------13--||
|-------------------------|--------------------------||
|-------------------------|-------------------------o||
|-------------------------|--------------------------||
|
|  E  E  E  E  E  E  E  E    E  E  E  E  E  E  E  E
|-------------------------|--------------------------||
|-------------------------|-------------------------o||
|-------------------------|--------------------------||
|-------------------------|--------------------------||
|-11-11-11-11-11-11-11-11-|-10-10-10-10-10-10-11-11-o||
|-11-11-11-11-11-11-11-11-|-10-10-10-10-10-10-11-11--||


     E  E    E  E    E  E    E  E      E  E    E  E    E  E    E  E
||----------------------------------|---------------------------------|
||o---------------------------------|---------------------------------|
||----------------------------------|-----------------13-12---10------|
||---8----------8---10---------10---|-11---------11--------------13---|
||o-----8----8----------8----8------|-----8----8----------------------|
||----------------------------------|---------------------------------|
|
|    E  E    E  E    E  E    E  E      E  E    E  E    E  E    E  E
||----------------------------------|-----------------16-15---13------|
||o-11---------11---13---------13---|-14---------14--------------16---|
||-----10---10---------10---10------|----10---10----------------------|
||----------------------------------|---------------------------------|
||o---------------------------------|---------------------------------|
||----------------------------------|---------------------------------|
|
|   Gtr III
|    E  S S  E  S S  E  S S  E  S S    E  S S  E  S S  E  S S  E  S S
||----------------------------------|---------------------------------|
||o---------------------------------|---------------------------------|
||----------------------------------|---------------------------------|
||----------------------------------|---------------------------------|
||o--8--8-8--8--8-8--8--8-8--8--8-8-|--8--8-8--8--8-8--8--8-8--8--8-8-|
||---8--8-8--8--8-8--8--8-8--8--8-8-|--8--8-8--8--8-8--8--8-8--8--8-8-|


   E  E     E  E     E  E     E  E       E  E     E  E     E  E     E  E
|-------------------------------------|---------------------------------------||
|-------------------------------------|--------------------------------------o||
|-------------------------------------|--8----------10----12-10-----8---------||
|-11----------11----10----------10----|-----8-----8--------------------6------||
|----11----11----------11----11-------|--------------------------------------o||
|-------------------------------------|---------------------------------------||
|
|  E  E     E  E     E  E     E  E       E  E     E  E     E  E     E  E
|-------------------------------------|-------------13----15-13---------------||
|-14----------14----13----------13----|-16-------------------------16--------o||
|----13----13----------13----13-------|----15----15-------------------13------||
|-------------------------------------|---------------------------------------||
|-------------------------------------|--------------------------------------o||
|-------------------------------------|---------------------------------------||
|
|  E  S  S  E  S  S  E  S  S  E  S  S    E  S  S  E  S  S  E  S  S  E  S  S
|-------------------------------------|---------------------------------------||
|-------------------------------------|--------------------------------------o||
|-------------------------------------|---------------------------------------||
|-------------------------------------|---------------------------------------||
|-11-11-11-11-11-11-11-11-11-11-11-11-|-10-10-10-10-10-10-10-10-10-11-11-11--o||
|-11-11-11-11-11-11-11-11-11-11-11-11-|-10-10-10-10-10-10-10-10-10-11-11-11---||


    S S S S  S  S  S  S  S  S  S  S  S  S  S  S
||----------------------------------------------|
||o---------------------------------------------|
||----------------------------------13-13-13-13-|
||--8-8-8-8-10-10-10-10-11-11-11-11-------------|
||o---------------------------------------------|
||----------------------------------------------|
|
|   E   H                      E     E     E
||----------------------------------------------|
||o---------------------------------------------|
||----------------------------------------------|
||----------------------------------------------|
||o-8--------------------------8-----8----------|
||--8--------------------------8-----8----------|


   S  S  S  S  S  S  S  S  S  S  S  S  S  S  S  S
|---------------------------------------------------|
|---------------------------------------------------|
|-------------------------------------12-12-12-12---|
|-11-11-11-11-10-10-10-10-13-13-13-13---------------|
|---------------------------------------------------|
|---------------------------------------------------|
|
|  E     H                       E     E     E
|---------------------------------------------------|
|---------------------------------------------------|
|---------------------------------------------------|
|---------------------------------------------------|
|-10----------------------------10----10------------|
|-10----------------------------10----10------------|


   S  S  S  S  S  S  S  S  S  S  S  S  S  S  S  S
|-------------------------------------------------|
|-------------------------------------------------|
|-------------------------------------10-10-10-10-|
|-------------11-11-11-11-13-13-13-13-------------|
|-11-11-11-11-------------------------------------|
|-------------------------------------------------|
|
|  E     H                       E     E     E
|-------------------------------------------------|
|-------------------------------------------------|
|-------------------------------------------------|
|-------------------------------------------------|
|-11----------------------------11----11----------|
|-11----------------------------11----11----------|


   S  S  S  S  S  S  S  S  S  S  S  S  S  S  S  S
|---------------------------------------------------||
|--------------------------------------------------o||
|-------------------------12-12-12-12---------------||
|-------------11-11-11-11-------------13-13-13-13---||
|-13-13-13-13--------------------------------------o||
|---------------------------------------------------||
|
|  E     H                       E     E     E
|---------------------------------------------------||
|--------------------------------------------------o||
|---------------------------------------------------||
|---------------------------------------------------||
|-13----------------------------13----13-----------o||
|-13----------------------------13----13------------||


  H.=H
    |-----------3-----------|
    E  E  E E E E E E E E E E
|--------------------------------|
|--------------------------------|
|--------------------------------|
|--------------------------------|
|--------------------------------|
|--12-11-10-9-8-7-6-5-4-3-2-1----|


  Gtr I
  W
|------|
|------|
|------|
|-0----|
|-0----|
|-0----|
|
| Gtr II
| W
|------|
|------|
|------|
|-0----|
|-0----|
|-0----|


  Q=120
 4/4
  Gtrs I, II
                               ~
  S S S S S S S S S S  S S S S E   S S S S S S S S S S S S S S S S
|--------------------------------|----------------------------------|
|--------------------------------|----------------------------------|
|--------------------------------|----------------------------------|
|--------------------------------|----------------------------------|
|-----5---7---8---5---10---8---7-|-----7-7-8-8-7-7-----8-8-7-7-8-8--|
|-0-0---0---0---0---0----0---0---|-5-5-------------8-8--------------|


  Gtrs I, II
                               ~
  S S S S S S S S S S  S S S S E   S S S S S S S S S S S S S S S S
|--------------------------------|-----------------------------------|
|--------------------------------|-----------------------------------|
|--------------------------------|-----------------------------------|
|--------------------------------|-----------------------------------|
|-----5---7---8---5---10---8---7-|-----7-7-8-8-7-7-----8-8-7-7-8-8---|
|-0-0---0---0---0---0----0---0---|-5-5-------------8-8---------------|


    Gtr I
                                 ~
    S S S S S S S S S S  S S S S E   S S S S S S S S S S S S S S S S
||---------------------------------|-----------------------------------||
||o--------------------------------|----------------------------------o||
||---------------------------------|-----------------------------------||
||---------------------------------|-----------------------------------||
||o-----5---7---8---5---10---8---7-|-----7-7-8-8-7-7-----8-8-7-7-8-8--o||
||--0-0---0---0---0---0----0---0---|-5-5-------------8-8---------------||
|
|   Gtr II
|                                ~
|   S S S S S S S S S S  S S S S E   S S S S S S S S S S S S S S S S
||---------------------------------|-----------------------------------||
||o--------------------------------|----------------------------------o||
||---------------------------------|-----------------------------------||
||------3---5---7---3----8---7---5-|-----5-5-7-7-5-5-----7-7-5-5-7-7---||
||o--------------------------------|----------------------------------o||
||--0-0---0---0---0---0----0---0---|-5-5-------------8-8---------------||


  Gtr I
  S S S S S S E S S S S S S E   S S S S S S S S S S  S S S S E
|-----------------------------|---------------------------------|
|-----------------------------|---------------------------------|
|-----------------------------|---------------------------------|
|-----------------------------|---------------------------------|
|-----5---7---8-----5---7---8-|-----5---7---8---5---10---8---7--|
|-0-0---0---0---0-0---0---0---|-0-0---0---0---0---0----0---0----|
|
| Gtr II
| S S S S S S E S S S S S S E   S S S S S S S S S S  S S S S E
|-----------------------------|---------------------------------|
|-----------------------------|---------------------------------|
|-----------------------------|---------------------------------|
|-----3---5---7-----3---5---7-|-----3---5---7---3----8---7---5--|
|-----------------------------|---------------------------------|
|-0-0---0---0---0-0---0---0---|-0-0---0---0---0---0----0---0----|


  Gtrs I, II
  S S S S S S S S S S  S S S S E   S S S S S S S S S S S S S S E
|--------------------------------|----------------------------------|
|--------------------------------|----------------------------------|
|--------------------------------|----------------------------------|
|--------------------------------|----------------------------------|
|-----8-----8-----7---10---8---7-|-----7-----7-----5---8---7---5----|
|-8-8---8-8---8-8---8----8---8---|-5-5---5-5---5-5---5---5---5------|


  S S S S S S S S S S  S S S S E   S S S S S S S S S S S S S S E
|--------------------------------|----------------------------------|
|--------------------------------|----------------------------------|
|--------------------------------|----------------------------------|
|--------------------------------|----------------------------------|
|-----8-----8-----7---10---8---7-|-----7-----7-----5---8---7---5----|
|-8-8---8-8---8-8---8----8---8---|-5-5---5-5---5-5---5---5---5------|
|
| S S S S S S S S S S  S S S S E   S S S S S S S S S S S S S S E
|--------------------------------|----------------------------------|
|--------------------------------|----------------------------------|
|--------------------------------|----------------------------------|
|-----7-----7-----5----8---7---5-|-----5-----5-----3---7---5---3----|
|--------------------------------|----------------------------------|
|-8-8---8-8---8-8---8----8---8---|-5-5---5-5---5-5---5---5---5------|


  S S S S S S E S S S S S S E   S S S S S S S S S S  S S S S E
|-----------------------------|---------------------------------|
|-----------------------------|---------------------------------|
|-----------------------------|---------------------------------|
|-----------------------------|---------------------------------|
|-----5---7---8-----5---7---8-|-----5---7---8---5---10---8---7--|
|-0-0---0---0---0-0---0---0---|-0-0---0---0---0---0----0---0----|
|
| S S S S S S E S S S S S S E   S S S S S S S S S S  S S S S E
|-----------------------------|---------------------------------|
|-----------------------------|---------------------------------|
|-----------------------------|---------------------------------|
|-----3---5---7-----3---5---7-|-----3---5---7---3----8---7---5--|
|-----------------------------|---------------------------------|
|-0-0---0---0---0-0---0---0---|-0-0---0---0---0---0----0---0----|


  S S S S S S E S S S S S S E   S S S S S S S S  S  S S S S S E
|-----------------------------|----------------------------------|
|-----------------------------|----------------------------------|
|-----------------------------|----------------------------------|
|-----------------------------|-----------------10-10-8-8-7-7-8--|
|-----5---7---8-----5---7---8-|-----5---7---8--------------------|
|-5-5---5---5---5-5---5---5---|-5-5---5---5---5------------------|
|
| S S S S S S E S S S S S S E   S S S S S S S S  S  S S S S S E
|-----------------------------|----------------------------------|
|-----------------------------|----------------------------------|
|-----------------------------|----------------------------------|
|-----3---5---7-----3---5---7-|-----3---5---7----3----8---7---8--|
|-----------------------------|----------------------------------|
|-5-5---5---5---5-5---5---5---|-5-5---5---5---5-----5---5---5----|


    Gtr I
    S S S  S S S S S S S S  S S S S S
||------------------------------------|
||o-----------------------------------|
||------------------------------------|
||------------------------------------|
||o-----8--8-7-7-8-8-----8--8-7-7-8-8-|
||--0-0--------------8-8--------------|
|
|   Gtr II
|   S S Q.           S S Q.
||------------------------------------|
||o-----------------------------------|
||------------------------------------|
||--0-0--------------8-8--------------|
||o-0-0--------------8-8--------------|
||--0-0--------------8-8--------------|


   S  S S S S S S  S  S  S S S S S S S
|-----------------------------------------||
|----------------------------------------o||
|-----------------------------------------||
|-----------------------------------------||
|-------8-8-7-7-8--8-10-10-8-8-7-7-8-8---o||
|-10-10-----------------------------------||
|
|  S  S   E     H.
|-----------------------------------------||
|----------------------------------------o||
|-----------------------------------------||
|-10-10-----------------------------------||
|-10-10----------------------------------o||
|-10-10-----------------------------------||


    S S S S S S S S S S S S S S S S    S  S S S S S S S  S  S S S S S S S  3x
||----------------------------------|--------------------------------------||
||o---------------------------------|-------------------------------------o||
||----------------------------------|--------------------------------------||
||----------------------------------|--------------------------------------||
||o-----8-8-7-7-8-8-----8-8-7-7-8-8-|-------8-8-7-7-8-8-10-10-8-8-7-7-8-8-o||
||--0-0-------------8-8-------------|-10-10--------------------------------||
|
|   S S S S S S S S S S S S S S S S    S  S S S S S S S  S  S S S S S S S  3x
||----------------------------------|--------------------------------------||
||o---------------------------------|-------------------------------------o||
||----------------------------------|--------------------------------------||
||------7-7-5-5-7-7-----7-7-5-5-7-7-|-------7-7-5-5-7-7--8--8-7-7-5-5-7-7--||
||o---------------------------------|-------------------------------------o||
||--0-0-------------8-8-------------|-10-10--------------------------------||


  Gtrs I, II
  S S S S S S S S S S S S S S  E    S S S S S S S  S S S S S S S  E
|--------------------------------|-------------------------------------|
|--------------------------------|-------------------------------------|
|--------------------------------|-------------------------------------|
|--------------------------------|-------------------------------------|
|-----5---7-----8-----7---5-7-/3-|------8---7-----10-----8---7-8-/5----|
|-0-0---0---0-0---0-0---0--------|-\8-8---8---8-8----8-8---8-----------|


    Gtr I
    S S S S S S S S S S S S S S  E    S S S S S S S  S S S S S S S  E
||---------------------------------|-------------------------------------||
||o--------------------------------|------------------------------------o||
||---------------------------------|-------------------------------------||
||---------------------------------|-------------------------------------||
||o-----5---7-----8-----7---5-7-/3-|------8---7-----10-----8---7-8-/5---o||
||--0-0---0---0-0---0-0---0--------|-\8-8---8---8-8----8-8---8-----------||
|
|   Gtr II
|   S S S S S S S S S S S S S S  E    S S S S S S S  S S S S S S S  E
||---------------------------------|-------------------------------------||
||o--------------------------------|------------------------------------o||
||---------------------------------|-------------------------------------||
||------3---5-----7-----5---3-5-/2-|------7---5------8-----7---5-7-/3----||
||o--------------------------------|------------------------------------o||
||--0-0---0---0-0---0-0---0--------|--8-8---8---8-8----8-8---8-----------||


    Gtrs I, II
    S S S S S S S S S S S S S S  E    S S S S S S S  S S S S S S S  E
||---------------------------------|-----------------------------------||
||o--------------------------------|----------------------------------o||
||---------------------------------|-----------------------------------||
||---------------------------------|-----------------------------------||
||o-----5---7-----8-----7---5-7-/3-|------8---7-----10-----8---7-8-/5-o||
||--0-0---0---0-0---0-0---0--------|-\8-8---8---8-8----8-8---8---------||
|
|   S S S S S S S S S S S S S S  E    S S S S S S S  S S S S S S S  E
||---------------------------------|-----------------------------------||
||o--------------------------------|----------------------------------o||
||---------------------------------|-----------------------------------||
||------3---5-----7-----5---3-5-/2-|------7---5------8-----7---5-7-/3--||
||o--------------------------------|----------------------------------o||
||--0-0---0---0-0---0-0---0--------|--8-8---8---8-8----8-8---8---------||


    Gtr I
    S S S S S S S  S S S S S S S  E    S S  S S S S S  S S S  S S S  S  E
||----------------------------------|----------------------------------------||
||o---------------------------------|------------------8--------------------o||
||------7---9-----10-----9---7-9-/5-|------10---9------------10---9-10-/7----||
||--0-0---0---0-0----0-0---0--------|--8-8----8---8-8----8-8----8------------||
||o---------------------------------|---------------------------------------o||
||----------------------------------|----------------------------------------||
|
|   Gtr II
|   S S S S S S S  S S S S S S S  E    S S  S S S S S  S S S  S S S  S  E
||----------------------------------|----------------------------------------||
||o---------------------------------|---------------------------------------o||
||----------------------------------|----------------------------------------||
||----------------------------------|----------------------------------------||
||o-----5---7------8-----7---5-7-/3-|-------8---7-----10------8---7--8-/5---o||
||--0-0---0---0-0----0-0---0--------|-\8-8----8---8-8----8-8----8------------||


  Q=107
  Gtrs I, II
    PM|   PM    PM  PM  PM|   PM|         PM|   PM    PM|    PM|   PM|
  |-3-|         |-3-|                   |-3-|
  S S S S S S S S S S S S S S S S S S   S S S S S S S S S  S S S S S S S S
|-------------------------------------|--------------------------------------|
|-------------------------------------|--------------------------------------|
|-------------------------------------|--------------------------------------|
|-------------------------------------|--------------------------------------|
|-------5---3h5-------8-----7-----5h7-|-------8---7h8-----10-----8-----7h8---|
|-0-0-0---0-----0-0-0---0-0---0-0-----|-8-8-8---8-----8-8----8-8---8-8-------|


      PM|   PM    PM  PM  PM|   PM|         PM|   PM    PM|    PM|   PM|
    |-3-|         |-3-|                   |-3-|
    S S S S S S S S S S S S S S S S S S   S S S S S S S S S  S S S S S S S S
||--------------------------------------|------------------------------------||
||o-------------------------------------|-----------------------------------o||
||--------------------------------------|------------------------------------||
||--------------------------------------|------------------------------------||
||o-------5---3h5-------8-----7-----5h7-|-------8---7h8-----10-----8-----7h8o||
||--0-0-0---0-----0-0-0---0-0---0-0-----|-8-8-8---8-----8-8----8-8---8-8-----||
|
|     PM|   PM    PM  PM  PM|   PM|         PM|   PM    PM|    PM|   PM|
|   |-3-|         |-3-|                   |-3-|
|   S S S S S S S S S S S S S S S S S S   S S S S S S S S S  S S S S S S S S
||--------------------------------------|------------------------------------||
||o-------------------------------------|-----------------------------------o||
||--------------------------------------|------------------------------------||
||--------3---2-3-------7-----5-----3-5-|-------7---5-7------8-----7-----5-7-||
||o-------------------------------------|-----------------------------------o||
||--0-0-0---0-----0-0-0---0-0---0-0-----|-8-8-8---8-----8-8----8-8---8-8-----||


      Gtr I
      PM|   PM     PM  PM  PM|   PM|
    |-3-|          |-3-|
    S S S S S S  S S S S S S S S S S S  S
||----------------------------------------|
||o---------------------------------------|
||----------------------------------------|
||----------------------------------------|
||o-------5---3h=5-------8-----7-----5h=7-|
||--0-0-0---0------0-0-0---0-0---0-0------|
|
|     PM|   PM     PM  PM  PM|   PM|
|   |-3-|          |-3-|
|   S S S S S S  S S S S S S S S S S S  S
||----------------------------------------|
||o---------------------------------------|
||----------------------------------------|
||--------3---2--3-------7-----5-----3--5-|
||o---------------------------------------|
||--0-0-0---0------0-0-0---0-0---0-0------|
|
|   Gtr II
|   |-3-|          |-3-|
|   S S S S S S  S S S S S S S S S S E
||----------------------------------------|
||o---------------------------------------|
||--7-7-7-7-7-5/-7-7-7-7-7-7-7-7-7-7-7\---|
||----------------------------------------|
||o-5-5-5-5-5-3/-5-5-5-5-5-5-5-5-5-5-5\---|
||----------------------------------------|


    PM|   PM    PM|     PM|     PM|
  |-3-|
  S S S S S S S S S   S S S S   S  S S S
|-------------------------------------------||
|------------------------------------------o||
|-------------------------------------------||
|-------------------------------------------||
|-------8---7h8------10-----8--------7h8---o||
|-8-8-8---8-----8-8-----8-8-----8--8--------||
|
|   PM|   PM    PM|     PM|     PM|
| |-3-|
| S S S S S S S S S   S S S S   S  S S S
|-------------------------------------------||
|------------------------------------------o||
|-------------------------------------------||
|-------7---5-7-------8-----7--------5-7----||
|------------------------------------------o||
|-8-8-8---8-----8-8-----8-8-----8--8--------||
|
| |-3-|
| S S S S S S S S S   S S S S   S  S S S
|-------------------------------------------||
|------------------------------------------o||
|-3-3-3-3-3-3-3-3-3/--5-5-5-5/-10-10-9-9\---||
|-------------------------------------------||
|-1-1-1-1-1-1-1-1-1/--3-3-3-3/--8--8-7-7\--o||
|-------------------------------------------||


        PM|      PM       PM    PM    PM|      PM|
     |--3--|              |--3--|
     S  S  S  S  S S   S  S  S  S  S  S  S  S  S  S  S  S
||--------------------------------------------------------|
||o-------------------------------------------------------|
||--------------------------------------------------------|
||--------------------------------------------------------|
||o-----------5----3h==5-----------8--------7--------5h=7-|
||---0--0--0-----0--------0--0--0-----0--0-----0--0-------|
|
|       PM|      PM       PM    PM    PM|      PM|
|    |--3--|              |--3--|
|    S  S  S  S  S S   S  S  S  S  S  S  S  S  S  S  S  S
||--------------------------------------------------------|
||o-------------------------------------------------------|
||--------------------------------------------------------|
||------------3----2---3-----------7--------5--------3--5-|
||o-------------------------------------------------------|
||---0--0--0-----0--------0--0--0-----0--0-----0--0-------|
|
|    |--3--|              |--3--|
|    S  S  S  E    S   S  S  S  S  S  S  S  S  S  S  E
||--10-10-10-10----8--10-10-10-10-10-10-10-10-10-10-10----|
||o-------------------------------------------------------|
||---7--7--7--7\---5/--7--7--7--7--7--7--7--7--7--7--7\---|
||--------------------------------------------------------|
||o-------------------------------------------------------|
||--------------------------------------------------------|


    PM|   PM    PM|     PM|     PM|
  |-3-|
  S S S S S S S S S   S S S S   S  S  S  S
|---------------------------------------------||
|--------------------------------------------o||
|---------------------------------------------||
|---------------------------------------------||
|-------8---7h8------10-----8---------7h=8---o||
|-8-8-8---8-----8-8-----8-8-----8--8----------||
|
|   PM|   PM    PM|     PM|     PM|
| |-3-|
| S S S S S S S S S   S S S S   S  S  S  S
|---------------------------------------------||
|--------------------------------------------o||
|---------------------------------------------||
|-------7---5-7-------8-----7---------5--7----||
|--------------------------------------------o||
|-8-8-8---8-----8-8-----8-8-----8--8----------||
|
| |-3-|
| S S S S S S S S S   S S S S   S  S  S  S
|-6-6-6-6-6-6-6-6-6---8-8-8-8--13-13-12-12----||
|--------------------------------------------o||
|-3-3-3-3-3-3-3-3-3/--5-5-5-5/-10-10--9--9\---||
|---------------------------------------------||
|--------------------------------------------o||
|---------------------------------------------||




   W
|-10----|
|-------|
|--7----|
|-------|
|--0----|
|--0----|


Duration Legend
---------------
W - whole; H - half; Q - quarter; E - 8th; S - 16th; T - 32nd; X - 64th; a - acciaccatura
+ - note tied to previous; . - note dotted; .. - note double dotted
Uncapitalized letters represent notes that are staccato (1/2 duration)
Irregular groupings are notated above the duration line
Duration letters will always appear directly above the note/fret number it represents the
duration for.  Duration letters with no fret number below them represent rests.  Multi-
bar rests are notated in the form Wxn, where n is the number of bars to rest for.  Low
melody durations appear below the staff

Tablature Legend
----------------
 h   - hammer-on
 p   - pull-off
 b   - bend
 pb  - pre-bend
 r   - bend release (if no number after the r, then release immediately)
 /\  - slide into or out of (from/to "nowhere")
 s   - legato slide
 S   - shift slide
  - natural harmonic
[n]  - artificial harmonic
n(n) - tapped harmonic
 ~   - vibrato
 tr  - trill
 T   - tap
 TP  - trem. picking
 PM  - palm muting
\n/  - tremolo bar dip; n = amount to dip
 \n  - tremolo bar down
 n/  - tremolo bar up
/n\  - tremolo bar inverted dip
 =   - hold bend; also acts as connecting device for hammers/pulls
 <>  - volume swell (louder/softer)
 x   - on rhythm slash represents muted slash
 o   - on rhythm slash represents single note slash

Misc Legend
-----------
 |  - bar
||  - double bar
||o - repeat start
o|| - repeat end
*|  - double bar (ending)
 :  - bar (freetime)
 $  - Segno
 &  - Coda
Tempo markers -  = BPM(8/16=s8/s16), where s8 = swing 8ths, s16 = swing 16ths

Tap to rate this tab
 
# A B C D E F G H I J K L M N O P Q R S T U V W X Y Z