Song name
# A B C D E F G H I J K L M N O P Q R S T U V W X Y Z

As Fast As - Florida Sunshine tab

Hey guys.  I was amazed to see these guys didn't have any tabs up on here, since they're
awesome band and all, so I thought I'd just make my own then. Here's most of the song
though it might not look like it.  It repeats a lot.  Other than these parts and the 
there's just a few little licks.  I'm gonna try to figure out the solo pretty soon, but
the meantime, enjoy!

Key
-----
v - Downstroke
^ - Upstroke
x - Deaden Strings
\ - Slide Down

Intro/Chorus
-----x-------x-------x-----------------xx--|
-----x-------x-------x-----------------xx--|
--55-x-5--88-x-8-----x-----------10----xx--|
--55-x-5--88-x-8--88-x-8--101010-10-10-xx--|
--33-x-3--66-x-6--88-x-8--101010--8-10-xx--|
-----x-------x----66-x-6---8-8-8-----8-xx--|
  vv   ^  vv   ^  vv   ^   v ^ v  v  v

Main Riff
------------------------------------|
------------------------------------|      When the riff is repeated
----5-3-----------------------------|      immediately, do not play the
--------5-4-3-----------------------|      slide.  Only play when there
--3-----------6-3-6-3-6-0-1-2-(3\)--|      is a break in the guitar.
------------------------------------|

Sometimes this is repeated.  Or sometimes it does this after the main riff:

---------|
---------|
--5-3-5--|      Then it repeats.
--5-3-5--|
--3-1-3--|
---------|

Listen to the song to get a feel for the tempo, when the repeats are (or aren't), and
that other good stuff. Have fun!
Tap to rate this tab
# A B C D E F G H I J K L M N O P Q R S T U V W X Y Z