Song name
# A B C D E F G H I J K L M N O P Q R S T U V W X Y Z

As Friends Rust - Coffee Black tab

as friends rust - coffee black
##############################

tabbed by vegan shithead (suggestions for improvement and stuff to veganshithead@gmx.de)


m-mute (what else)

you like your...          2nd "just the truth"
E|-----------------       E|--------------------------------|
B|-----------------       B|---------------8------8------8--|
G|--------7-----5--   2x  G|--5--7--9---9--7---9--7---9--7--|
D|--2--5--7--2--5--       D|--5--7--9---9--5---9--5---9--5--|
A|--2--5--5--2--3--       A|--3--5--7---7------7------7-----|
E|--0--3-----0-----       E|------------m------m------m-----|
             m
				here, instead the G on the D-string
				you could play an E on the A-string
				too. it's up to you


and the only problem...

E|---------------------|
B|---------------------|
G|--------7-7-7-----5--|   2x
D|--2--5--7-7-7--2--5--|
A|--2--5--5-5-5--2--3--|
E|--0--3---------0-----|
                 m


you are the moral majority...

E|--------------------------------------|
B|--------------------------------------|
G|--7--5--7--9--12--11--19----7--5--7---|
D|--7--5----------------------7--5--7---|
A|--5--3--5--7--10--9---17----5--3--5---|
E|--------------------------------------|

break down

E|--------------------------------------|
B|--------------------------------------|
G|--------------------7--x--7--5--x--5--|
D|--2--x--2--5--x--5--7--x--7--5--x--5--|
A|--2--x--2--5--x--5--5--x--5--3--x--3--|
E|--0--x--0--3--x--3--------------------|

E|------------------------------------------|
B|------------------------------------------|
G|--7----6--7----6--6----4--4----2----------|
D|--7----7--7----7--7----7--5----5----------|
A|------------------------------------------|
E|------------------------------------------|
this part is definitely not correct but i can't figure it out yet


how we lust familiarity...

E|-----------------------------------------------------------------------------|
B|-----------------------------------------------------------------------------|
G|--12--11-------5----5--4--5--4------12--11----19--17--16----5----5--4--5--4--|
D|-----------------------------------------------------------------------------|
A|--10--9--------3----3--2--3--2------10--9-----17--15--14----3----3--2--3--2--|
E|-----------------------------------------------------------------------------|


and the football season...

E|--------------------------------------|
B|--------------------------------------|
G|--------------------7--x--7--5--x--5--|
D|--2--x--2--5--x--5--7--x--7--5--x--5--|
A|--2--x--2--5--x--5--5--x--5--3--x--3--|
E|--0--x--0--3--x--3--------------------|

E|------------------------------------------|
B|------------------------------------------|
G|--7----6--7----6--6----4--4----2----------|
D|--7----7--7----7--7----7--5----5----------|
A|------------------------------------------|
E|------------------------------------------|
this part is definitely not correct but i can't figure it out yet
Tap to rate this tab
# A B C D E F G H I J K L M N O P Q R S T U V W X Y Z