Song name
# A B C D E F G H I J K L M N O P Q R S T U V W X Y Z

As Friends Rust - More Than Just Music Its A Hairstyle tab

As Friends Rust
More Than Just Music, It's a Hairstyle
A Young Trophy Band in the Parlance of Our Times
Derik Dunson
takenoverbyzombies@hotmail.com


  intro and chorus, chorus might use octaves too
e|--------------------------------|-----------------------------------------|
B|--------------------------------|-----------------------------------------|
G|--------------------------------|-----------------------------------------|
D|9999999977775555----------------|9999999977775555-------------------------|
A|7777777755553333555-555-555-5555|7777777755553333555-555-5/7777-7---------|
E|----------------333-333-333-3333|----------------333-333-3/5555-5p0-------|


e|----7777------------------------|-----------------------------------------|
B|--------10p8h10/12-88-----------|----------------------------8/10-101010--|
G|---------------------9p7-9p7----|-----------------------------------------|
D|----------------------------10-9|99-10-12-12-10-9-9-10p9-7\5-5/7--7-7-7---|
A|--------------------------------|-----------------------------------------|
     lead comes in after a few


  Verse
e|--------------------------------|
B|--------------------------------|
G|--------------------------------| sounds like they might go up even
D|-------------------44-444/55-55-| further than the C5 chord on other
A|55555555--22222222-22-222/33-33-|            times.
E|33333333--00000000--------------|
  xxxxxxxx  xxxxxxxx


e|-----------------|--------------------------------------------------------|
B|-----------------|--------------------------------------------------------|
G|7--4--/9--4-4h5p4|4h5-4h5-4h5-4h5-----------------------------------------|
D|-----------------|----------------5h7-5h7-5h7-5---------------------------|
A|-----------------|--------------------------------------------------------|
E|-----------------|--------------------------------------------------------|


  How is this time different from the last time?
e|------------------|-------------|------------------------------------------|
B|------------------|-------------|------------------------------------------|
G|------------------|777-7\5-5/9-7|777-999-111111-12121212-11-10-------------|
D|------------------|-------------|------------------------------------------|
A|555-x-55-555-x-55-|555-5\3-3/7-5|555-777-9-9-9--10101010-9--7--------------|
E|333-x-330333-x-330|-------------|------------------------------------------|


  End with this.
D|-------------|
A|---7-----5---|
E|---5--0--3---|

| /  slide up
| \  slide down
| h  hammer-on
| p  pull-off
| ~  vibrato
| +  harmonic
| x  Mute note

www.equalvision.com  www.asfriendsrust.net  www.doghouserecords.com
Tap to rate this tab
# A B C D E F G H I J K L M N O P Q R S T U V W X Y Z