Song name
# A B C D E F G H I J K L M N O P Q R S T U V W X Y Z

As I Lay Dying - Forever tab

h-hammer on (hold last note hold next note)
p-pull off (hold last note hold next note)
*-bend (pull on string )
.-palm mute (put palm at end of guitar put palm down and play notes)
/-slide (slide up one note with one finger hoplding last strum)
r-let note ring

D--------------------------------------------------------------------
A--------------------------------------------------------------------
F--------------------------------------------------------------------
C-2-2h3h2----2h3h3-----2-2h3h2-----2h3h2------10--8--7--8-7-5--------
G---------3r--------3r----------3r-------3r--------------------------
C--------------------------------------------------------------------

D---------------------------------------------------------------------
A---------------------------------------------------------------------
F---------------------------------------------------------------------
C-2h3h2----2h3h2-----10--8--7r--15-14-17------------------------------
G-------3r-------3r---------------------------------------------------
C---------------------------------------------------------------------

D---------------------------------------------------------------------|
A---------------------------------------------------------------------|
F------------------------------10-9-----------------------------------|
C-8-7-8-10--8-7-8-7-8-10--8-7-------10--------------------------------|
G---------------------------------------------------------------------|
C---------------------------------------------------------------------|
                                                                      | x2
D---------------------------------------------------------------------|
A---------------------------------------------------------------------|
F-----------------10-9----12-10-9-------------------------------------|
C-8-7-8-10--8-7--------10---------------------------------------------|
G---------------------------------------------------------------------|
C---------------------------------------------------------------------|

D---------------------------------------------------------------------|
A---------------------------------------------------------------------|
F---------------------------------------------------------------------|
C-0--0-0--0--0-0---8--8-8--8-8--8-------------------------------------|x2
G-0--0-0--0--0-0---8--8-8--8-8--8-------------------------------------|
C-0--0-0--0--0-0---8--8-8--8-8--8-------------------------------------|
     . .     . .      . .    .

2nd time the first note of the 8's this part comes in

D---------------------------------------------------------------------
A---------------------------------------------------------------------
F-----------------10-9----12-10-9-10-9--------------------------------
C-8-7-8-7-10-8-7-------10--------------10-----------------------------
G---------------------------------------------------------------------
C---------------------------------------------------------------------

D---------------------------------------------------------------------|
A---------------------------------------------------------------------|
F----------------10-9----10-9----10----------------10-9--12-10-9-10---|
C-0-0--0-0-0--0-------10------10-----8-8--8-8-8--8-----10-------------|x2
G-0-0--0-0-0--0----------------------8-8--8-8-8--8--------------------|
C-0-0--0-0-0--0----------------------8-8--8-8-8--8--------------------|

D---------------------------------------------------------------------|
A---------------------------------------------------------------------|
F--------------------10-9--10-9--10-------------------10-9--12-10-9-10|x2
C-000--0-0-000--0-0------10----10---888--8-8--888-8-8-----10----------|
G-000--0-0-000--0-0-----------------888--8-8--888-8-8-----------------|
C-000--0-0-000--0-0-----------------888--8-8--888-8-8-----------------|
  ...  . . ...  . .                 ...  . .  ... .
clean part

D---------------------------------------------------------------------|
A---------------------------------------------------------------------|
F---------------------------------------------------------------------|
C---------------------------------------------------------------------|
G-8--8-8-8-8--7--7-7-7-7--10--10-10-10-10--8--8-8-8-8-----------------|
C-0--0-0-0-0--0--0-0-0-0---0---0--0--0--0--0--0-0-0-0-----------------|
                                                                      |
turn on distortion after 3.5 times                                    |x3.5
D---------------------------------------------------------------------|
A---------------------------------------------------------------------|
F---------------------------------------------------------------------|
C---------------------------------------------------------------------|
G-8--8-8-8-8--7--7-7-7-7--5--5-5-5-5--8--8-8-8-8----------------------|
C-8--8-8-8-8--8--8-8-8-8--8--8-8-8-8--8--8-8-8-8----------------------|


D---------------------------------------------------------------------|
A---------------------------------------------------------------------|
F---------------------------------------------------------------------|
C---------------------------------------------------------------------|
G-8--8-8-8-8--7--7-7-7-7--10--10-10-10-10--8--8-8-8-8-----------------|
C-0--0-0-0-0--0--0-0-0-0---0---0--0--0--0--0--0-0-0-0-----------------|
                                                                      |x3
D---------------------------------------------------------------------|
A---------------------------------------------------------------------|
F---------------------------------------------------------------------|
C---------------------------------------------------------------------|
G-8--8-8-8-8--7--7-7-7-7--5--5-5-5-5--8--8-8-8-8----------------------|
C-8--8-8-8-8--8--8-8-8-8--8--8-8-8-8--8--8-8-8-8----------------------|

v comes after ^is played once but ^ plays through out v. v comes in after 1 time through ^.

D---------------------------------------------------------------------|
A---------------------------------------------------------------------|
F----------------------------------------10-9--12-10-9----------------|
C-8-7-8-10-8-7-8-7-8-10-8-7-8-7-8-10-8-7-----10-----------------------|
G---------------------------------------------------------------------|
C---------------------------------------------------------------------|
                                                                      |x3
D---------------------------------------------------------------------|
A---------------------------------------------------------------------|
F---------------------------10-9--12-10-9-10-9--12-10-9---------------|
C-8-7-8-10-8-7-8-7-8-10-8-7-----10------------10----------------------|
G---------------------------------------------------------------------|
C---------------------------------------------------------------------|

D---------------------------------------------------------------------|
A---------------------------------------------------------------------|
F-10--10-10-10-10--9--9-9-9-9--7--7-7-7-7--7--7-7-7-7-----------------|
C---------------------------------------------------------------------|
G---------------------------------------------------------------------|
C---------------------------------------------------------------------|
                                                                      |x4
D---------------------------------------------------------------------|
A---------------------------------------------------------------------|
F-5--5-5-5-5--5--5-5-5-5----------------------------------------------|
C------------------------3--3-3-3-3--3--3-3-3-3-----------------------|
G---------------------------------------------------------------------|
C---------------------------------------------------------------------|

D---------------------------------------------------------------------|
A---------------------------------------------------------------------|
F---------------------------------------------------------------------|
C-0r------------------------------------------------------------------|
G-0r------------------------------------------------------------------|
C-0r------------------------------------------------------------------|
                                                                      



Tap to rate this tab
 
# A B C D E F G H I J K L M N O P Q R S T U V W X Y Z