Song name
# A B C D E F G H I J K L M N O P Q R S T U V W X Y Z

As I Lay Dying - Illusions tab

----------------------------------------------------------------------------
			      Illusions
                                  ~
		           As I Lay Dying
----------------------------------------------------------------------------

Tabbed by: Offbeat		
Email: bcdudethe13th@att.net

Tuning: C G C F A C  << drop the e string down to C

		No idea if this is right, but its how I play it.


               This is played with Two guitars, but i cant figure
          out the other part.If you know it, please email me 		
C|-------------------------------------------------------------------------|
A|-------------------------------------------------------------------------|
F|-------------------------------------------------------------------------|
C|-0-1-0-1-0-1-0-1-0-1-0-1-0-1-0-1-0-1-0-1-0-1-0-1-0-1-0-1-0-1-0-1-0-1-0-1-|
G|-------------------------------------------------------------------------|
C|-------------------------------------------------------------------------|


  Riff 2    Guitar 1
C|--------t12-p0-h6-p0 t12-p0-h6-p0-t12-p0-h6-p0 t12-p0-h6-p0--------------|
A|-------------------------------------------------------------------------|
F|-------------------------------------------------------------------------|
C|-------------------------------------------------------------------------|
G|-------------------------------------------------------------------------|
C|-------------------------------------------------------------------------|
               yah, i know that might be kinda hard to follow

  Riff 2    Guitar 2
C|-------------------------------------------------------------------------|
A|-------------------------------------------------------------------------|
F|-------------------------------------------------------------------------|
C|-------------------------------------------------------------------------|
G|-------------------------------------------------------------------------|
C|----0-0-0-0-0-0-0----0-0-0-0-0--0---0--0---------------------------------|
pm    . . . . . . .    . . . . .  .   .  .

   Guitar 2 switches to a diffent rhythm, which u can hopefully figure out.
  Then Guitar 1 speeds up the tapping a little, to this:

C|------t12-p6-p0-t12-p6-p0-t12-p6-p0t12-p6-p0-----------------------------|
A|-------------------------------------------------------------------------|
F|-------------------------------------------------------------------------|
C|-------------------------------------------------------------------------|
G|-------------------------------------------------------------------------|
C|-------------------------------------------------------------------------|




  Verse Riff!
C|-------------12-12-12----------------------------------------------------|
A|-------------9--9--9-----------------------------------------------------|
F|-------------------------------------------------------------------------|
C|-------------------------------------------------------------------------|
G|----------0--------------------------------------------------------------|
C|--0-0-0-0-0--------------------------------------------------------------|
    . . . . 


    Ps 
  This is my first tab.
  Enjoy or hate me.
 




| .  PM 
| t  Tap
| /  slide up
| \  slide down
| h  hammer-on
| p  pull-off
| ~  vibrato
| +  harmonic
| x  Mute note
==========================================================================
Tap to rate this tab
# A B C D E F G H I J K L M N O P Q R S T U V W X Y Z