Song name
# A B C D E F G H I J K L M N O P Q R S T U V W X Y Z

As I Lay Dying - Nothing Left tab

 Ok Ive seen a lot of intro tabs for this song, none of which sound to good on my 
so i've tabbed this... (make sure you mute after every open note [0])

x=Mute
p=pull off
*=pinch harmonic

[GTR 1]
 D-------------------------------------------------------------------------|
 A-------------------------------------------------------------------------|
 F-------------------------------------------------------------------------|
 C---7p0--0--0--0--8p0--0--0--0--7p0--0--0--0------------------------------|
 G-------------------------------------------------------------------------|
 C------------------------------------------------0-5-7-8-7-5-3-5----------|

 D-------------------------------------------------------------------------|
 A-------------------------------------------------------------------------|
 F-------------------------------------------------------------------------|
 C---7p0--0--0--0--10p0--0--0--0--8p0--0--0--0-----------------------------|
 G-------------------------------------------------------------------------|
 C------------------------------------------------0-5-7-8-7-5-7-5----------|
 (((X2)))

[GTR 2]
 D-------------------------------------------------------------------|
 A-------------------------------------------------------------------|
 F-------------------------------------------------------------------|
 C-------------------------------------------------------------------|
 G-------------------------------------------------------------------|
 C--00----------------------------00-------------0-5-7-8-7-5-3-5-----|

 D--------------------------------------------------------------------|
 A--------------------------------------------------------------------|
 F--------------------------------------------------------------------|
 C--------------------------------------------------------------------|
 G--------------------------------------------------------------------|
 C--00---------------0-00-----0-00---------------0-5-7-8-7-5-7-5------|

  (This Is Played on the first guitars' second repetition)
 D-------------------------------------------------------------------|
 A------10-------------11----------------10--------------------------|
 F-------x-------------x-----------------x---------------------------|
 C-------7-------------8-----------------7---------------------------|
 G-------------------------------------------------------------------|
 C-------------------------------------------------------------------|

 D--------------------------------------------------------------------|
 A-------10-------------13---------------11---------------------------|
 F--------x--------------x----------------x---------------------------|
 C--------7-------------10----------------8-----------//////////////--|
 G-----------------------------------------------------(PICK SCRAPE)--|
 C----------------------------------------------------//////////////--|

 [Both]
 D-------------------------------------------------------------------------|
 A-------------------------------------------------------------------------|
 F-------------------------------------------------------------------------|
 C---7p0--0--0--0--8p0--0--0--0--7p0--0--0--0------------------------------|
 G-------------------------------------------------------------------------|
 C------------------------------------------------0-5-7-8-7-5-3-5----------|

 D-------------------------------------------------------------------------|
 A-------------------------------------------------------------------------|
 F-------------------------------------------------------------------------|
 C---7p0--0--0--0--10p0--0--0--0--8p0--0--0--0-------------------7*--------|
 G-------------------------------------------------------------------------|
 C------------------------------------------------0-5-7-8-7-5--------------|

 D-------------------------------------------------------------------------|
 A-------------------------------------------------------------------------|
 F-------------------------------------------------------------------------|
 C---7p0--0--0--0--8p0--0--0--0--7p0--0--0--0------------------------------|
 G-------------------------------------------------------------------------|
 C------------------------------------------------0-5-7-8-7-5-3-5----------|

 D-------------------------------------------------------------------------|
 A-------------------------------------------------------------------------|
 F-------------------------------------------------------------------------|
 C---7p0--0--0--0--10p0--0--0--0--8p0--0--0--0------------------------1----|
 G--------------------------------------------------------------------1----|
 C------------------------------------------------0-5-7-8-7-5-7-------1----|

hope this works for you people... any questions comments email me at

metal_head9000@sbcglobal.net
Tap to rate this tab
 
# A B C D E F G H I J K L M N O P Q R S T U V W X Y Z