Guitaretab - guitar tabs
Song name
# A B C D E F G H I J K L M N O P Q R S T U V W X Y Z

As I Lay Dying - The Great Ohio Incident tab

----------------------------------------------------------------------------
                  THE GREAT OHIO INCIDENT: by From The Ashes
----------------------------------------------------------------------------

Tuning: Drop-B

   INTRO
Db -------------------------------------------------------------------------|
Ab -------------------------------------------------------------------------|
E  -------------------------------------------------------------------------|
B  -------------------------------------------------------------------------|
F# 3------------6-5-4-3--------8-004/5-3-000-00-000-00-000-6-5-4-3-000-00---|
B  3-3333333333-6-5-4-3-333333-8-004/5-3-000-00-000-00-000-6-5-4-3-000-00---|

Db -----------|
Ab -----------|
E  -----------|
B  -----------| (pause 2 beats)
F# 000-8---4/5|
B  000-8-004/5|

   INTRO(2) RIFF(changed)
Db -------------------------------------------------------------------------|
Ab -------------------------------------------------------------------------|
E  -------------------------------------------------------------------------|
B  -------------------------------------------------------------------------|
F# 3-----43-3------6-5-4-3-----43-3----8---4/5-3--000-00-000-00-000-6-5-4-3-|
B  3-333-43-3-3333-6-5-4-3-333-43-3-33-8-004/5-3--000-00-000-00-000-6-5-4-3-|

                              5-3 RIFF(through darkness BD)
Db -------------------------|------------------------------------------------|
Ab -------------------------|------------------------------------------------|
E  -------------------------|------------------------------------------------|
B  -------------------------|------------------------------------------------|
F# 000-00-000-00-000-8-004/5|5-555-6-5-6-6-5-9-6h8p6-5-555-6-5-6-6-5-9-6h8p6-|
B  000-00-000-00-000-8-004/5|5-555-6-5-6-6-5-9-6h8p6-5-555-6-5-6-6-5-9-6h8p6-|

                                                   BUILD
Db -----------------------------------------------|--------------------------|
Ab -----------------------------------------------|--------------------------|
E  -----------------------------------------------|--------------------------|
B  -----------------------------------------------|--------------------------|
F# 3-333-4-3-4-4-3-7-4h6p4-3-333-4-3-4-4-3-7-4h6p4|3(let ring)-33333-4-3-----|ring
B  3-333-4-3-4-4-3-7-4h6p4-3-333-4-3-4-4-3-7-4h6p4|3(let ring)-33333-4-3-----|ring

[ Tab from: http://www.guitaretab.com/a/as-i-lay-dying/192368.html ]
   BUILD cont.          SCOTTY's RIFF(x2)
Db --------------------|----------------------------------------------------|
Ab --------------------|----------------------------------------------------|
E  --------------------|----------------------------------------------------|
B  --------------------|----------------------------------------------------|
F# 3-33333333333-/slide|-3----4--3-4-3----4--3-4-3----4--3-4-3--6-7---------|
B  3-33333333333-/slide|-3-33--6-3-4-3-33--6-3-4-3-33--6-3-4-3--6-7---------|


Db -------------------------------------------|
Ab -------------------------------------------|
E  ---------------------------------6/8888\555| (repeat 1 more time)
B  -------------------------------------------|
F# 3----4--3-4-3----4---3-4-3-------4/6666\333|
B  3-33--6-3-4-3-33--6--3-4-3-333333----------|

   INTRO(2) RIFF(changed)
Db -------------------------------------------------------------------------|
Ab -------------------------------------------------------------------------|
E  -------------------------------------------------------------------------|
B  -------------------------------------------------------------------------|
F# 3-----43-3------6-5-4-3-----43-3----8---4/5-3--000-00-000-00-000-6-5-4-3-|
B  3-333-43-3-3333-6-5-4-3-333-43-3-33-8-004/5-3--000-00-000-00-000-6-5-4-3-|

Db -------------------------|
Ab -------------------------|
E  -------------------------|
B  -------------------------|(pause 4 beats)
F# 000-00-000-00-000-8-004/5|
B  000-00-000-00-000-8-004/5|

   ADTR breakdown ( * = snare hit)
Db ------------------------|
Ab ------------------------|
E  ------------------------|(repeat 4x)
B  ------------------------|
F# ------------------------|
B  00-00-*-00-00-00-0000-00|


   INTRO(2) RIFF(changed)
Db -------------------------------------------------------------------------|
Ab -------------------------------------------------------------------------|
E  -------------------------------------------------------------------------|
B  -------------------------------------------------------------------------|
F# 3-----43-3------6-5-4-3-----43-3----8---4/5-3--000-00-000-00-000-6-5-4-3-|
B  3-333-43-3-3333-6-5-4-3-333-43-3-33-8-004/5-3--000-00-000-00-000-6-5-4-3-|

                             TRANSITION into BD
Db -------------------------|-------------------|
Ab -------------------------|-------------------|
E  -------------------------|-------------------|
B  -------------------------|-------------------|
F# 000-00-000-00-000-8-004/5|---------------(3)-|
B  000-00-000-00-000-8-004/5|-00-00-0-00-000-3--|

   BILLY'S FINAL BD (x2 fast, x4 slow)
Db -------------------|-----|
Ab -------------------|-----|
E  -------------------|-----|
B  -------------------|-----|
F# 021-032-065-032-021|-0-0-|
B  021-032-065-032-021|-0-0-|
Related for The Great Ohio Incident tab
Advertisement will be closed in 10 seconds