Song name
# A B C D E F G H I J K L M N O P Q R S T U V W X Y Z

As I Lay Dying - Nothing Left tab

I'm confident this is more accurate than the other tabs up here. 
Enjoy, rate, comment, ROCK ON! \m/>.<\m/

Drop C Tuning

|--------------------------------------------------------------------|
|--------------------------------------------------------------------|
|--------------------------------------------------------------------|
|-7-----------------8---------------7--------------------------------|
|---5---5---5---5-----5---5---5---5---5---5---5---5--------5---------|
|-----0---0---0---0-----0---0---0-------0---0---0----0-3-7---8-5-1-3-|


|--------------------------------------------------------------------|
|--------------------------------------------------------------------|
|-------------------5------------------------------------------------|
|-7---------------------------------8--------------------------------|
|---5---5---5---5-----5---5---5---5---5---5---5---5--------5---------|
|-----0---0---0---0-----0---0---0-------0---0---0----0-3-7---8-5-7-3-|


|--------------------------------------------------------------------|
|--------------------------------------------------------------------|
|--------------------------------------------------------------------|
|-7-----------------8---------------7--------------------------------|
|---5---5---5---5-----5---5---5---5---5---5---5---5--------5---------|
|-----0---0---0---0-----0---0---0-------0---0---0----0-3-7---8-5-1-3-|


|--------------------------------------------------------------------|
|--------------------------------------------------------------------|
|--------------------------------------------------------------------|
|-7-----------------8---------------7--------------------------------|
|---5---5---5---5-----5---5---5---5---5---5---5---5--------5---------|
|-----0---0---0---0-----0---0---0-------0---0---0----0-3-7---8-5-7-3-|

|--------------------------------------------------------------------|
|--------------------------------------------------------------------|
|--------------------------------------------------------------------|
|-7-----------------8---------------7--------------------------------|
|---5---5---5---5-----5---5---5---5---5---5---5---5--------5---------|
|-----0---0---0---0-----0---0---0-------0---0---0----0-3-7---8-5-1-3-|

|--------------------------------------------------------------------|
|--------------------------------------------------------------------|
|--------------------------------------------------------------------|
|-7-----------------8---------------7--------------------------------|
|---5---5---5---5-----5---5---5---5---5---5---5---5--------5-----5*--|
|-----0---0---0---0-----0---0---0-------0---0---0----0-3-7---8-5-----|

|--------------------------------------------------------------------|
|--------------------------------------------------------------------|
|--------------------------------------------------------------------|
|-7-----------------8---------------7--------------------------------|
|---5---5---5---5-----5---5---5---5---5---5---5---5--------5---------|
|-----0---0---0---0-----0---0---0-------0---0---0----0-3-7---8-5-1-3-|

|------------------------------------------------------------------------|
|------------------------------------------------------------------------|
|------------------------------------------------------------------------|
|-7-----------------8---------------7--------------------------------0~~-|
|---5---5---5---5-----5---5---5---5---5---5---5---5--------5---------0~~-|
|-----0---0---0---0-----0---0---0-------0---0---0----0-3-7---8-5-7-3-0~~-|

|----------------------------------------|
|----------------------------------------|
|----------------------------------------|
|----------------------------------------|
|----------------------------------------|
|-0-0-0-0-0----0---0--0-0-0-0-0----0---0-|

|------------------------------------------------------|
|------------------------------------------------------|
|------------------------------------------------------|
|------------------------------------------------------|
|------------------------------------------------------|
|-0-0-0-0-0----0---0--7-0-0-0-5-0-0-0-7-0-0-0-3H5H7----|

|----------------------------------------|
|----------------------------------------|
|----------------------------------------|
|----------------------------------------|
|----------------------------------------|
|-0-0-0-0-0----0---0--0-0-0-0-0----0---0-|

|------------------------------------------------------|
|------------------------------------------------------|
|------------------------------------------------------|
|------------------------------------------------------|
|------------------------------------------------------|
|-0-0-0-0-0----0---0--7-0-0-0-5-0-0-0-7-0-0-0-3H5H7----|


|---------------------------------------------------------------------------|
|---------------------------------------------------------------------------|
|---------------------------------------------------------------------------|
|--12-0-0-0-12-0-0-0-12-0-0-0-12-0-0-0--12-0-0-0-12-0-0-0-12-0-0-0-12-0-0-0-|
|---------------------------------------------------------------------------|
|---------------------------------------------------------------------------|

|---------------------------------------------------------------------------|
|---------------------------------------------------------------------------|
|---------------------------------------------------------------------------|
|-12-0-0-0-12-0-0-0-12-0-0-0-12-0-0-0-12-0-0-0-8-0-0-0-10-0-0-0-7-8-10------|
|---------------------------------------------------------------------------|
|---------------------------------------------------------------------------|

|--------------------------------------------------------------------|
|--------------------------------------------------------------------|
|--------------------------------------------------------------------|
|-7-----------------8---------------7--------------------------------|
|---5---5---5---5-----5---5---5---5---5---5---5---5--------5---------|
|-----0---0---0---0-----0---0---0-------0---0---0----0-3-7---8-5-1-3-|


|--------------------------------------------------------------------|
|--------------------------------------------------------------------|
|-------------------5------------------------------------------------|
|-7---------------------------------8--------------------------------|
|---5---5---5---5-----5---5---5---5---5---5---5---5--------5---------|
|-----0---0---0---0-----0---0---0-------0---0---0----0-3-7---8-5-7-3-|

			       [1/2 Step]
|------------------------------11-10B~~--10P8---8------|
|------------------10~~-----------------------11--10~~-|
|-/7~~----7-7-10-7--------7-10-------------------------|
|------------------------------------------------------|
|------------------------------------------------------|
|------------------------------------------------------|

			          [1/2 Step]
|------------------10~~------------17-17B~~--17P15----15-17~~-|
|--------------------------------------------------18---------|
|-/10~~----10-10-14---------10-14-----------------------------|
|-------------------------------------------------------------|
|-------------------------------------------------------------|
|-------------------------------------------------------------|

|---------------------------------------------------------------------------|
|---------------------------------------------------------------------------|
|---------------------------------------------------------------------------|
|--12-0-0-0-12-0-0-0-12-0-0-0-12-0-0-0--12-0-0-0-12-0-0-0-12-0-0-0-12-0-0-0-|
|---------------------------------------------------------------------------|
|---------------------------------------------------------------------------|

|---------------------------------------------------------------------------|
|---------------------------------------------------------------------------|
|---------------------------------------------------------------------------|
|-12-0-0-0-12-0-0-0-12-0-0-0-12-0-0-0-12-0-0-0-8-0-0-0-10-0-0-0-7-8-10------|
|---------------------------------------------------------------------------|
|---------------------------------------------------------------------------|

|---------------------------------------------------------------------------|
|---------------------------------------------------------------------------|
|---------------------------------------------------------------------------|
|--12-0-0-0-12-0-0-0-12-0-0-0-12-0-0-0--12-0-0-0-12-0-0-0-12-0-0-0-12-0-0-0-|
|---------------------------------------------------------------------------|
|---------------------------------------------------------------------------|

|--------------------------------------|
|--------------------------------------|
|--------------------------------------|
|-12-0-0-0-12-0-0-0-12-0-0-0-12-0-0-0--|
|--------------------------------------|
|--------------------------------------|

|------------------------------------------------------------|
|------------------------------------------------------------|
|------------------------------------------------------------|
|-1-0-0-0-3-0-0-0-5-0-0-0-7P3-5-0-0-0-7-0-0-0-9-0-0-0-12P9---|
|------------------------------------------------------------|
|------------------------------------------------------------|

|-------------------------------------|
|---------10-10-10-10-10-10--10-------|
|----------7--7--7--7--7--7---7-------|
|----------0--0--0--0--0--0---0-------|
|-------0-----------------------------|
|-000-0-0-----------------------------|

|---------------------------------------------------------|
|---------11-11-11-11-11-11-11-11-11-11-11-11-11-11-11-11-|
|----------8--8--8--8--8--8--8--8--8--8--8--8--8--8--8--8-|
|----------0--0--0--0--0--0--0--0--0--0--0--0--0--0--0--0-|
|-------0-------------------------------------------------|
|-000-0-0-------------------------------------------------|

|-------------------------------------|
|---------10-10-10-10-10-10--10-------|
|----------7--7--7--7--7--7---7-------|
|----------0--0--0--0--0--0---0-------|
|-------0-----------------------------|
|-000-0-0-----------------------------|

|----------------------------------------|
|---------11-11-11-11-11-11--11----------|
|----------8--8--8--8--8--8---8----------|
|----------0--0--0--0--0--0---0----------|
|-------0----------------------------5*--|
|-000-0-0-------------------------5H8----|

|-------------------------------------|
|---------10-10-10-10-10-10--10-------|
|----------7--7--7--7--7--7---7-------|
|----------0--0--0--0--0--0---0-------|
|-------0-----------------------------|
|-000-0-0-----------------------------|

|---------------------------------------------------------|
|---------11-11-11-11-11-11-11-11-11-11-11-11-11-11-11-11-|
|----------8--8--8--8--8--8--8--8--8--8--8--8--8--8--8--8-|
|----------0--0--0--0--0--0--0--0--0--0--0--0--0--0--0--0-|
|-------0-------------------------------------------------|
|-000-0-0-------------------------------------------------|

|-------------------------------------|
|---------10-10-10-10-10-10--10-------|
|----------7--7--7--7--7--7---7-------|
|----------0--0--0--0--0--0---0-------|
|-------0-----------------------------|
|-000-0-0-----------------------------|

|---------------------------------------------------------|
|---------11-11-11-11-11-11-11-11-11-11-11-11-11-11-11-11-|
|----------8--8--8--8--8--8--8--8--8--8--8--8--8--8--8--8-|
|----------0--0--0--0--0--0--0--0--0--0--0--0--0--0--0--0-|
|-------0-------------------------------------------------|
|-000-0-0-------------------------------------------------|

|-------------------------------------|
|---------10-10-10-10-10-10--10-------|
|----------7--7--7--7--7--7---7-------|
|----------0--0--0--0--0--0---0-------|
|-------0-----------------------------|
|-000-0-0-----------------------------|

|----------------------------------|
|---------11-11-11-11-11-11-11-11--|
|----------8--8--8--8--8--8--8--8--|
|----------0--0--0--0--0--0--0--0--|
|-------0--------------------------|
|-000-0-0--------------------------|

|-------------------6P5----------------|
|--------------------------------------|
|------------------------7~~-----------|
|---------0~~~~~~~~~~~~~~~~~-----------|
|---------0~~~~~~~~~~~~~~~~~---5--8----|
|-5-8-7-3-0~~~~~~~~~~~~~~~~~---5--8----|

|------------6~P5~--------------|
|-------------------------------|
|-----------------7~~-----------|
|--0~~~~~~~~~~~~~~~~~-----------|
|--0~~~~~~~~~~~~~~~~~---8--5----|
|--0~~~~~~~~~~~~~~~~~---8--5----|

|------------6~P5~--------------|
|-------------------------------|
|-----------------7~~-----------|
|--0~~~~~~~~~~~~~~~~~-----------|
|--0~~~~~~~~~~~~~~~~~---5--8----|
|--0~~~~~~~~~~~~~~~~~---5--8----|

|------------6~P5~--------------|
|-------------------------------|
|-----------------7~~-----------|
|--0~~~~~~~~~~~~~~~~~-----------|
|--0~~~~~~~~~~~~~~~~~---8--5----|
|--0~~~~~~~~~~~~~~~~~---8--5----|

|------------6~P5~--------------|
|-------------------------------|
|-----------------7~~-----------|
|--0~~~~~~~~~~~~~~~~~-----------|
|--0~~~~~~~~~~~~~~~~~---5--8----|
|--0~~~~~~~~~~~~~~~~~---5--8----|

|------------6~P5~--------------|
|-------------------------------|
|-----------------7~~-----------|
|--0~~~~~~~~~~~~~~~~~-----------|
|--0~~~~~~~~~~~~~~~~~---8--5----|
|--0~~~~~~~~~~~~~~~~~---8--5----|


|-----------------------------------------|
|-----------------------------------------|
|-------------------------------------5---|
|-7------------------8------------------7-|
|-5------------------5----------------5-5-|
|---00-00-0--0-000-------000-000----------|

|----------------------------------------------------|
|----------------------------------------------------|
|----------------------------------------------------|
|----------------------------------------------------|
|----------------------------------------------------|
|-00-00-0--0-000--7-0-0-0-8-0-0-0-7-0-0-0-8-0-0-0----|

|-----------------------------------------|
|-----------------------------------------|
|-------------------------------------5---|
|-7------------------8------------------7-|
|-5------------------5----------------5-5-|
|---00-00-0--0-000-------000-000----------|

|---------------------------------------------------|
|---------------------------------------------------|
|---------------------------------------------------|
|-----------------7-0-0-0-8-0-0-0-7-0-0-0-8-0-0-0---|
|---------------------------------------------------|
|-00-00-0--0-000------------------------------------|

|-----------------------------------------|
|-----------------------------------------|
|-------------------------------------5---|
|-7------------------8------------------7-|
|-5------------------5----------------5-5-|
|---00-00-0--0-000-------000-000----------|

|----------------------------------------------------|
|----------------------------------------------------|
|----------------------------------------------------|
|----------------------------------------------------|
|----------------------------------------------------|
|-00-00-0--0-000--7-0-0-0-8-0-0-0-7-0-0-0-8-0-0-0----|

|-----------------------------------------|
|-----------------------------------------|
|-------------------------------------5---|
|-7------------------8------------------7-|
|-5------------------5----------------5-5-|
|---00-00-0--0-000-------000-000----------|

|--------------------------------------------------------------------------------|
|--------------------------------------------------------------------------------|
|--------------------------------------------------------------------------------|
|----------------8-0-0-0-7-0-0-0-8-0-0-0-7-0-0-0-8-0-0-0-7-0-0-0-8-0-0-0-7-0-0-0-|
|--------------------------------------------------------------------------------|
|-00-00-0--0-000-----------------------------------------------------------------|

|------------------------------------------------------------|
|------------------------------------------------------------|
|-------------------------------------15-------15-------14~~-|
|--10-0-0-0-8-0-0-0-12-0-0-0-15-0-0-0----0-0-0----0-0-0------|
|------------------------------------------------------------|
|------------------------------------------------------------|


SOLO
[Slow bending up to the note)
|------------------------------------------|
|------------------------------------------|
|-17b19~~------19H20P19P17H19P17-----------|
|--------------------------------17-17b19~-|
|------------------------------------------|
|------------------------------------------|

|-------------------------------|
|-------------------------------|
|------------------------15B17~-|
|----------------17-------------|
|-17H18H17\15-17----17-15-------|
|-------------------------------|

|--15-17--17H18P17----17-18P17----17-|
|------------------15----------15----|
|------------------------------------|
|------------------------------------|
|------------------------------------|
|------------------------------------|

			[Pinch then bend 1/4 step. No vibrato]
|-------------------------------------------------|
|--15H16P15----15---------------------------------|
|-----------17----17-15---------------------------|
|------------------------17-----17----17----*17B--|
|----------------------------18----18----17-------|
|-------------------------------------------------|

|-------------------------------------17-18-18P17P15----15-|
|----------------------------------------------------18----|
|-14H15P14----14H15P14H15-17-15-14H15----------------------|
|----------17----------------------------------------------|
|----------------------------------------------------------|
|----------------------------------------------------------|

|--------------------------------------------------|
|-18P16P15H16----15H16P15--------------------------|
|-------------17----------17--15-------15~~--------|
|--------------------------------19P17-------------|
|--------------------------------------------------|
|--------------------------------------------------|

|-------------------------------------------------|
|-------------------------------------------------|
|-12----------------------14----------------15----|
|----12-12-12-12-12-12-12----12-12-12-12-12----12-|
|-------------------------------------------------|
|-------------------------------------------------|

|--------------------------------------------------|
|-------------------13---15H16P15P13-15P13---------|
|------------------------------------------15P14---|
|-12-12-17-12-12-12--------------------------------|
|--------------------------------------------------|
|--------------------------------------------------|

|-------------------------------------------------|
|-------------------------------------------------|
|-12----------------------14----------------15----|
|----12-12-12-12-12-12-12----12-12-12-12-12----12-|
|-------------------------------------------------|
|-------------------------------------------------|

|-------------------------------------------------20B22~-|
|-------------------13---15H16P15P13-15P13-15H16--x------|
|-------------------------------------------------x------|
|-12-12-17-12-12-12--------------------------------------|
|--------------------------------------------------------|
|--------------------------------------------------------|

|-------------------------------------|
|---------10-10-10-10-10-10--10-------|
|----------7--7--7--7--7--7---7-------|
|----------0--0--0--0--0--0---0-------|
|-------0-----------------------------|
|-000-0-0-----------------------------|

|---------------------------------------------------------|
|---------11-11-11-11-11-11-11-11-11-11-11-11-11-11-11-11-|
|----------8--8--8--8--8--8--8--8--8--8--8--8--8--8--8--8-|
|----------0--0--0--0--0--0--0--0--0--0--0--0--0--0--0--0-|
|-------0-------------------------------------------------|
|-000-0-0-------------------------------------------------|

|-------------------------------------|
|---------10-10-10-10-10-10--10-------|
|----------7--7--7--7--7--7---7-------|
|----------0--0--0--0--0--0---0-------|
|-------0-----------------------------|
|-000-0-0-----------------------------|

|----------------------------------------|
|---------11-11-11-11-11-11--11----------|
|----------8--8--8--8--8--8---8----------|
|----------0--0--0--0--0--0---0----------|
|-------0----------------------------5*--|
|-000-0-0-------------------------5H8----|

|-------------------------------------|
|---------10-10-10-10-10-10--10-------|
|----------7--7--7--7--7--7---7-------|
|----------0--0--0--0--0--0---0-------|
|-------0-----------------------------|
|-000-0-0-----------------------------|

|---------------------------------------------------------|
|---------11-11-11-11-11-11-11-11-11-11-11-11-11-11-11-11-|
|----------8--8--8--8--8--8--8--8--8--8--8--8--8--8--8--8-|
|----------0--0--0--0--0--0--0--0--0--0--0--0--0--0--0--0-|
|-------0-------------------------------------------------|
|-000-0-0-------------------------------------------------|

|-------------------------------------|
|---------10-10-10-10-10-10--10-------|
|----------7--7--7--7--7--7---7-------|
|----------0--0--0--0--0--0---0-------|
|-------0-----------------------------|
|-000-0-0-----------------------------|

|---------------------------------------------------------|
|---------11-11-11-11-11-11-11-11-11-11-11-11-11-11-11-11-|
|----------8--8--8--8--8--8--8--8--8--8--8--8--8--8--8--8-|
|----------0--0--0--0--0--0--0--0--0--0--0--0--0--0--0--0-|
|-------0-------------------------------------------------|
|-000-0-0-------------------------------------------------|

|-------------------------------------|
|---------10-10-10-10-10-10--10-------|
|----------7--7--7--7--7--7---7-------|
|----------0--0--0--0--0--0---0-------|
|-------0-----------------------------|
|-000-0-0-----------------------------|

|----------------------------------|
|---------11-11-11-11-11-11-11-11--|
|----------8--8--8--8--8--8--8--8--|
|----------0--0--0--0--0--0--0--0--|
|-------0--------------------------|
|-000-0-0--------------------------|

|----------------------------------|
|----------------------------------|
|----------------------------------|
|---------0~~~~~~~~~~~~~~~~~-------|
|---------0~~~~~~~~~~~~~~~~~-------|
|-5-8-7-3-0~~~~~~~~~~~~~~~~~-------|
Tap to rate this tab
 
# A B C D E F G H I J K L M N O P Q R S T U V W X Y Z