Song name
# A B C D E F G H I J K L M N O P Q R S T U V W X Y Z

As I Lay Dying - Upside Down Kingdom tab

Submitted By: AILD587
Tuning: Drop D

            pt.1
e|-----------------------------------------------------------------|
B|-----------------------------------------------------------------|
G|-----------------------------------------------------------------|
D|----33-0~~~~~----------55-2~~~~~---------------------------------|
A|----33-0~~~~~----------55-2~~~~~---------------------------------|
D|----33-0~~~~~----------55-2~~~~~---------------------------------|


          pt.2
e|-----------------------------------------------------------------|
B|-----------------------------------------------------------------|
G|-----------------------------------------------------------------|
D|---------------------77--55------------55------------------------|
A|------88-5~-5h7-88-5---88--7~-5h7-88-55--77----------------------|
D|-----------------------------------------------------------------|x4

 i think (could and probably am wrong) guitar 2 does the same thing but an octave up
Tap to rate this tab
 
# A B C D E F G H I J K L M N O P Q R S T U V W X Y Z