Song name
# A B C D E F G H I J K L M N O P Q R S T U V W X Y Z

As I Lay Dying - Upside Down Kingdom tab

As I Lay Dying
"Upside Down Kingdom"
The Powerless Rise (2010)

Tuning:
Drop D


|----------------------|
|----------------------|
|--1010--7~---1212--9~-|
|---x-x--x-----x-x--x--|
|---8-8--5~---1010--7~-|
|----------------------|
 
(x2)
|---------------------------------------------|
|---------------------------------------------|
|---------------------------------------------|
|-----------------77----55--------------55----|
|-88-5--5-7-88-55----88----7--5-7-88-55----77-|
|---------------------------------------------|

(x2)
|-------------------------------------------------------|
|---------------------1010------88----------------88----|
|-1010-7--7-9-1010-77------1010----9--7-9-1010-77----99-|
|-------------------------------------------------------|
|-------------------------------------------------------|
|-------------------------------------------------------|
   
(x2 tremolo pick)
|------------------------------------------------------------------|
|------------------------------------------------------------------|
|------------------------------------------------------------------|
|------------------------------------------------------------------|
|------------------------------------------------------------------|
|-12-14-0-15-14-0-12-0--17-14-0-15-14-0-12-0--12-14-0-15-14-0-12-0-|
|
| 1st end             | 2nd end                      
|---------------------|----------------------|
|---------------------|----------------------| 
|---------------------|----------------------|
|---------------------|----------------------|
|---------------------|----------------77-88-|
|-888888-55-7777-3333-|-888888-55-7777-------|
  ...... .. .... ....   ...... .. ....
|----------------------|
|------(tp)------------|
|----------------------|
|----------------------|
|----------------------|
|-12-14-0-15-14-0-12-0-|
|
| 1st,3rd end  | 2nd end             | 4th end
|--------------|---------------------|----------------------|
|--------------|---------------------|----------------------|
|--------------|---------------------|----------------------|
|--------------|---------------------|----------------------|
|--------------|---------------------|----------------77-88-|
|-000000000000-|-888888-55-7777-3333-|-888888-55-7777-------|
  ............   ...... .. .... ....   ...... .. ....

|--------|-----(x4)-----|
|--------|--------------|
|--------|--------------|
|--------|--------------|
|--------|--------------|
|-000000-|-000000000000-|
  ......   ............ 

|-----------------------------------------------------------|
|-17-15-15-------17-15-15-/18~----17-15-15------------------|
|----------14~-----------------------------14~-14b-rb--\9~b-|
|-----------------------------------------------------------|
|-----------------------------------------------------------|
|-----------------------------------------------------------|

(x2)                                      | 1st time only
|-----------------------------------------|----------------|
|-----------------------------------------|----------------|
|-----------------------------------------|----------------|
|-----------------------------------------|----------------|
|-----------------------------------------|----------------|
|-1200-1200-1200-1200-0000-1200-1200-1200-|-1200-7h8h10/12-|
                      ....  
(x2 tremolo pick)
|------------------------------------------------------------------|
|------------------------------------------------------------------|
|------------------------------------------------------------------|
|------------------------------------------------------------------|
|------------------------------------------------------------------|
|-12-14-0-15-14-0-12-0--17-14-0-15-14-0-12-0--12-14-0-15-14-0-12-0-|
|
| 1st end             | 2nd end                      
|---------------------|----------------------|
|---------------------|----------------------| 
|---------------------|----------------------|
|---------------------|----------------------|
|---------------------|----------------77-88-|
|-888888-55-7777-3333-|-888888-55-7777-------|
  ...... .. .... ....   ...... .. ....
(x2)
|-----------------------------------------------------------|
|-----------------------------------------------------------|
|-7-9-10~---9-7------7-9-10--9-7----9-7-10b-9-7-----9-7-7~--|
|---------------7~---------------7--------------7-----------|
|-----------------------------------------------------------|
|-----------------------------------------------------------|

(x3)                                 |1st,3rd end| 2nd end
|------------------------------------|-----------|---------------|
|------------------------------------|-----------|---------------|
|------------------------------------|-----------|---------------|
|------------------------------------|-----------|---------------|
|------------------------------------|-----------|---------------|
|-00-0-0-00-12p0-00-0-0-00-12p0-00-0-|-8888-3333-|-8888/15151515-|
| ..     ..      ..     ..      ..     .... ....   ....  . . . .
| 4th end
|---------------------------------------------------------|
|---------------------------------------------------------|
|---------------------------------------------------------|
|---------------------------------------------------------|
|-------------------------------------------------------5-|
|-00-0-0-00-12p0-00-0-13p12p10-12p10p9-10p8p7-8p7p5-0h3---|
  ..     ..      ..

(x2)
|-----------------------------------------------------------|
|-----------------------------------------------------------|
|-7-9-10~---9-7------7-9-10--9-7----9-7-10b-9-7-----9-7-7~--|
|---------------7~---------------7--------------7-----------|
|-----------------------------------------------------------|
|-----------------------------------------------------------|

(x2 tremolo pick)
|------------------------------------------------------------------|
|------------------------------------------------------------------|
|------------------------------------------------------------------|
|------------------------------------------------------------------|
|------------------------------------------------------------------|
|-12-14-0-15-14-0-12-0--17-14-0-15-14-0-12-0--12-14-0-15-14-0-12-0-|
|
| 1st end             | 2nd end                      
|---------------------|----------------------|----|
|---------------------|----------------------|----|
|---------------------|----------------------|----|
|---------------------|----------------------|-0~-|
|---------------------|----------------77-88-|-0~-|
|-888888-55-7777-3333-|-888888-55-7777-------|-0~-|
  ...... .. .... ....   ...... .. ....
Tap to rate this tab
 
# A B C D E F G H I J K L M N O P Q R S T U V W X Y Z