As I Lay Dying - Nothing Left tab

As I Lay Dying
Nothing Left Solo
Drop C (CGCFAD)

h - hammer on
p - pull off
ph - pinch harmonic
b - bend
lr - let ring
() - ghost note

|---------------------------------------------------10----15-17-17h18p17--|
|-13b-13-15-13-----13----------------------13-----------------------------|
|--------------14-----12-12b---12-13-12-10----10-10-----------------------|
|-------------------------------------------------------------------------|
|-------------------------------------------------------------------------|
|-------------------------------------------------------------------------|

|----17-18-17----17-17------------------------------------|
|-15---------15--------15h16p15----15---------------------|
|-------------------------------17------------------------|
|----------------------------------------17---------------|
|-------------------------------------18----18-17lr--17ph-|
|---------------------------------------------------------|

|----------------------------------18h17h15---15--------------------------|
|-------------------------------------------18---18h16h15-16----15-16-15--|
|-14h15p14----14-15-14-15-17-15-14---------------------------17-----------|
|----------17-------------------------------------------------------------|
|-------------------------------------------------------------------------|
|-------------------------------------------------------------------------|
|-------------------------------------------------------------------------|

|---------------------|
|---------------------|
|-17-15-14-12-15-(15)-|
|---------------------|
|---------------------|
|---------------------|

|-------------------------------------------------|
|-------------------------------------------------|
|-12----------------------14----------------15----|
|----12-12-12-12-12-12-12----12-12-12-12-12----12-|
|-------------------------------------------------|
|-------------------------------------------------|

|-------------------------------------------------|
|-------13----------13----16h15h13----15-13-------|
|----------------------------------15-------15-14-|
|-12-12----12-12-12----12-------------------------|
|-------------------------------------------------|
|-------------------------------------------------|

|-------------------------------------------------|
|-------------------------------------------------|
|-12----------------------14----------------15----|
|----12-12-12-12-12-12-12----12-12-12-12-12----12-|
|-------------------------------------------------|
|-------------------------------------------------|

|-------------------------------------------------|
|-------13----------13----16h15h13----15-13-------|
|----------------------------------15-------15-14-|
|-12-12----12-12-12----12-------------------------|
|-------------------------------------------------|
|-------------------------------------------------|

|-20b22lr--|
|----------|
|----------|
|----------|
|----------|
|----------|

enjoy. :)
Tap to rate this tab
 
# A B C D E F G H I J K L M N O P Q R S T U V W X Y Z