Song name
# A B C D E F G H I J K L M N O P Q R S T U V W X Y Z

As I Lay Dying - Parallels tab

                         PARALLELS - AS I LAY DYING

Tabbed by: Jacob Friedrich
Email: jquinn57@live.com


Gt. 1 = Standard (EADGBe)
Gt. 2 = Standard (EADGBe)
Gt. 3 = Standard (EADGBe)

Tempo = 200bpm


Intro

Gt. 1
|------------------------------------|
|*----------------------------------*|
|------------------------------------| x5
|--------------7---------------------|
|*--7875-5--555-5-5-555--5555--5555-*|
|-------8----------------------------|

Gt. 2
|--------------------------------------------------------------------|
|--------------------------------------------------------------------|
|----7-------------------------------7-------------------------------|
|----7-------------------------------7-------------------------------|
|----5-------------------------------5-------------------------------|
|----5-------------------------------5-------------------------------|

------------------------------------------------------------------|
------------------------------------------------------------------|
--3---------------5---------------7-------------------------------|
--3---------------5---------------7-------------------------------|
--1---------------3---------------5-------------------------------|
--1---------------3---------------5-------------------------------|

----------------------------------|
----------------------------------|
--3---------------5---------------|
--3---------------5---------------|
--1---------------3---------------|
--1---------------3---------------|

1 & 2
|--------------------------------------------------------------------|
|-------------------------------------------------------------------*|
|--------------------------------------------------------------------| x2
|-----7----------5----7---------------7----------5-7-7---------75----|
|--5---5-5--57-8---5---5-5--57-8--75---5-5--57-8------8-8-7-7-7---7-*|
|--------------------------------8-------------------------------8---|

|--------------------------------------------------------------------|
|--------------------------------------------------------------------|
|--777-777-77777777-77-777-77777777-77-777-77777777-77-777-77777777--|
|--777-777-77777777-77-777-77777777-77-777-77777777-77-777-77777777--|
|--555-555-55555555-55-555-55555555-55-555-55555555-55-555-55555555--|
|--555-555-55555555-55-555-55555555-55-555-55555555-55-555-55555555--|
   *** *** ******** ** *** ******** ** *** ******** ** *** ********


|--------------------------------------------------------------------|
|-------------------------------------------------------------------*|
|--------------------------------------------------------------------|
|-----7----------5----7---------------7----------5-7-7---------75----|
|--5---5-5--57-8---5---5-5--57-8--75---5-5--57-8------8-8-7-7-7---7-*|
|--------------------------------8-------------------------------8---|

1
|-----------------------------------------------------------------|
|-----------------------------------------------------------------|
|-----------------------------------------------------------------|
|-----------------------------------------------------------------|
|--85-85-85-85-87-785-85-85-85-85-785-85-85-85-87-785-85-85-853---|
|--------------------------------8--------------------------------|

2
|------------------------------------------------------------------|
|------------------------------------------------------------------|
|------------------------------------------------------------------|
|----------------------------------------------78-87--7--7---------|
|--85-85-85-85-87-785-85-85-85-85-785-85-85-85------8--8--88---7---|
|--------------------------------8---------------------------------|

Chorus

1
|----------------------------------|
|*--------------------------------*|
|----------------------------------|
|------------7---------------------|
|*-7875-5-555-5-5-555--5555--5555-*|
|------8---------------------------|

2
|------------------8-----------------------------------------------------|
|*-8108-----------------------------------------------------------------*|
|------10910-101010-10-10-101010--10101010--10101010---------------------|
|------------------------------------------------------------------------|
|*----------------------------------------------------------------------*|
|------------------------------------------------------------------------|

3
|--------------------------------------------------------------------|
|*------------------------------------------------------------------*|
|--3333333333333333555555555555555577777777777777775555555555555555--|
|--3333333333333333555555555555555577777777777777775555555555555555--|
|*-1111111111111111333333333333333355555555555555553333333333333333-*|
|--1111111111111111333333333333333355555555555555553333333333333333--|

Verse 2
1
|-----------------------------------------------------------------|
|*---------------------------------------------------------------*|
|-----------------------------------------------------------------|
|-----------------------------------------------------------------|
|*-85-85-85-85-87-785-85-85-85-85-785-85-85-85-87-785-85-85-85-7-*|
|--------------------------------8----------------------------8---|

2
|-----------------------------------------------------------------|
|-----------------------------------------------------------------|
|-----------------------------------------------------------------|
|----------------------------------------------78-87--7--7--7--5--|
|--85-85-85-85-87-785-85-85-85-85-785-85-85-85------8--8--8--87---|
|--------------------------------8--------------------------------|

|------------------------------------|
|*----------------------------------*|
|------------------------------------|
|--7--7--7--7--78-87--7--7--7--7--5--|
|*--8--8--8--8------8--8--8--8--87--*|
|------------------------------------|

Chorus

Bridge
1
|--101010101010--------------------888888------------------------|
|*-------------10101010101010101010------1010101010101010101010--|
|----------------------------------------------------------------|
|----------------------------------------------------------------|
|*---------------------------------------------------------------|
|----------------------------------------------------------------|

---------------------------------------------|
--88888810101010101010101010-----------------|
----------------------------7777779999999999-|
---------------------------------------------|
---------------------------------------------|
---------------------------------------------|

--101010101010--------------------888888-----------------------|
-------------10101010101010101010------1010101010101010101010--|
---------------------------------------------------------------|
---------------------------------------------------------------|
---------------------------------------------------------------|
---------------------------------------------------------------|

----------------------------88888810101010101010101010--|
--88888810101010101010101010---------------------------*|
--------------------------------------------------------|
--------------------------------------------------------|
-------------------------------------------------------*|
--------------------------------------------------------|

2 (2nd time only)
|--------------------------------------------------------------------|
|--333333----------111111--------------------------------------------|
|--------2222222222------22222222220000002222222222------------------|
|--------------------------------------------------0000002222222222--|
|--------------------------------------------------------------------|
|--------------------------------------------------------------------|

--------------------------------------------------------------------|
--333333----------111111--------------------------1111111133333333--|
--------2222222222------22222222220000002222222222------------------|
--------------------------------------------------------------------|
--------------------------------------------------------------------|
--------------------------------------------------------------------|

Solo

3
|----------------------|
|*--------------------*|
|--7----2----10----12--| x4
|--7----2----10----12--|
|*-5----0-----8----10-*|
|--5----0-----8----10--|

Chorus
Tap to rate this tab
 
# A B C D E F G H I J K L M N O P Q R S T U V W X Y Z