Song name
# A B C D E F G H I J K L M N O P Q R S T U V W X Y Z

As I Lay Dying - Confined tab

------------------------------------------------------------------------------
                           As I Lay Dying - Confined                            
------------------------------------------------------------------------------
Tabbed by: conorc94
Tuning: Drop C (CGCFAD)

--Intro--

Guitar 1
D|------------------------------------|------------------------------------|
A|------------------------------------|------------------------------------|
F|------------------------------------|------------------------------------|
C|------------------------------------|------------------------------------|
G|------------------------------------|------------------------------------|
C|000-0-0-0-0--000-0-0-0-0--000-0-0---|000-0-0-0-0--000-0-0-0-0--000-0-0---|
  *** * * * *  *** * * * *  *** * *    *** * * * *  *** * * * *  *** * *
  
D|------------------------------------|------------------------------------|
A|------------------------------------|------------------------------------|
F|------------------------------------|------------------------------------|
C|------------------------------------|------------------------------------|
G|----5---7-------8---10---8-7--3h5---|----5---7-------8---7---8-7--3h5----|
C|0-0---0---0-0-0---0----0------------|0-0---0---0-0-0---0---0-------------|
  * *   *   * * *   *    *             * *   *   * * *   *   *
  
D|------------------------------------|------------------------------------|
A|------------------------------------|------------------------------------|
F|------------------------------------|------------------------------------|
C|------------------------------------|------------------------------------|
G|----5---7-------8---10---8-7--3h5---|----5---7-------8---7---8-7--3h5----|
C|0-0---0---0-0-0---0----0------------|0-0---0---0-0-0---0---0-------------|  
  * *   *   * * *   *    *             * *   *   * * *   *   * 
 
Guitar 2
D|------------------------------------|------------------------------------|
A|------------------------------------|------------------------------------|
F|------------------------------------|------------------------------------|
C|------------------------------------|------------------------------------|
G|------------------------------------|------------------------------------|
C|------------------------------------|000-0-0-0-0--000-0-0-0-0--000-0-0---|
                                       *** * * * *  *** * * * *  *** * *

D|------------------------------------|------------------------------------|
A|------------------------------------|------------------------------------|
F|------------------------------------|------------------------------------|
C|0~~~~~~~~~~~~~~~~~~~~~~~~~~~~~~~~~~~|~~~~~~~~~~~~~~~~~~~~~~~~~~~~~~~~~~~~|
G|0~~~~~~~~~~~~~~~~~~~~~~~~~~~~~~~~~~~|~~~~~~~~~~~~~~~~~~~~~~~~~~~~~~~~~~~~|
C|0~~~~~~~~~~~~~~~~~~~~~~~~~~~~~~~~~~~|~~~~~~~~~~~~~~~~~~~~~~~~~~~~~~~~~~~~|


D|------------------------------------|------------------------------------|
A|------------------------------------|------------------------------------|
F|------------------------------------|------------------------------------|
C|0~~~~~~~~~~~~~~~~~~~~~~~~~~~~~~~~~~~|~~~~~~~~~~~~~~~~~~~~~~~~~~~~~~~~~~~~|
G|0~~~~~~~~~~~~~~~~~~~~~~~~~~~~~~~~~~~|~~~~~~~~~~~~~~~~~~~~~~~~~~~~~~~~~~~~|
C|0~~~~~~~~~~~~~~~~~~~~~~~~~~~~~~~~~~~|~~~~~~~~~~~~~~~~~~~~~~~~~~~~~~~~~~~~|

--Verse pt1--

Guitar 1 + 2
D|------------------------------------|------------------------------------|
A|------------------------------------|------------------------------------|
F|------------------------------------|------------------------------------|
C|------------------------------------|------------------------------------|  X2
G|----5---7-------8---10---8-7--3h5---|----5---7-------8---7---8-7--3h5----|
C|0-0---0---0-0-0---0----0------------|0-0---0---0-0-0---0---0-------------|
  * *   *   * * *   *    *             * *   *   * * *   *   *

--Verse pt2--

Guitar 1
D|------------------------------------|------------------------------------|
A|------------------------------------|------------------------------------|
F|------------------------------------|------------------------------------|
C|------------------------------------|------------------------------------|
G|----5---7-------8---10---8-7--3h5---|----5---7-------8---7---8-7--3h5----|
C|0-0---0---0-0-0---0----0------------|0-0---0---0-0-0---0---0-------------|
  * *   *   * * *   *    *             * *   *   * * *   *   *
  
D|------------------------------------|------------------------------------|
A|------------------------------------|------------------------------------|
F|------------------------------------|------------------------------------|
C|------------------------------------|--------------------------[7]-------|
G|----5---7-------8---10---8-7--3h5---|----5---7-------8---7---------------|
C|0-0---0---0-0-0---0----0------------|0-0---0---0-0-0---0---0-------------|
  * *   *   * * *   *    *             * *   *   * * *   *   *  

Guitar 2
D|------------------------------------|------------------------------------|
A|------------------------------------|------------------------------------|
F|------------------------------------|------------------------------------|
C|------------------------------------|------------------------------------|
G|0-0-------0-0-0--------00000000-----|0-0-------0-0-0-------00000000------|
C|0-0-------0-0-0--------00000000-----|0-0-------0-0-0-------00000000------|
  * *       * * *        ********      * *       * * *       ********
  
D|------------------------------------|------------------------------------|
A|------------------------------------|------------------------------------|
F|------------------------------------|------------------------------------|
C|------------------------------------|------------------------------------|
G|0-0-------0-0-0--------00000000-----|0-0-------0-0-0----000-000-000-000--|
C|0-0-------0-0-0--------00000000-----|0-0-------0-0-0----000-000-000-000--|
  * *       * * *        ********      * *       * * *    *** *** *** ***
 
--Verse pt3--

Guitar 1
D|------------------------------------|------------------------------------|
A|------------------------------------|------------------------------------|
F|------------------------------------|------------------------------------|
C|------------------------------------|------------------------------------|
G|----5---7-------8---10---8-7--3h5---|----5---7-------8---7---8-7--3h5----|
C|0-0---0---0-0-0---0----0------------|0-0---0---0-0-0---0---0-------------|
  * *   *   * * *   *    *             * *   *   * * *   *   *
 
D|------------------------------------|------------------------------------|
A|------------------------------------|------------------------------------|
F|------------------------------------|------------------------------------|
C|------------------------------------|--------------------------------0---|
G|----5---7-------8---10---8-7--3h5---|----5---7-------8---7---8-7-----0---|
C|0-0---0---0-0-0---0----0------------|0-0---0---0-0-0---0---0-----10--0---|
  * *   *   * * *   *    *             * *   *   * * *   *   *
  
Guitar 2
D|------------------------------------|------------------------------------|
A|------------------------------------|------------------------------------|
F|------------------------------------|------------------------------------|
C|------------------------------------|------------------------------------|
G|000-----0-000----------00000000-----|000-----0--000---------00000000-----|
C|000-----0-000----------00000000-----|000-----0--000---------00000000-----|
  ***     * ***          ********      ***     *  ***         ********
  
D|------------------------------------|------------------------------------|
A|------------------------------------|------------------------------------|
F|------------------------------------|------------------------------------|
C|------------------------------------|--------------------------------0---|
G|0-0-------0-0-0--------00000000-----|0-0-------0-0-0----------000000-0---|
C|0-0-------0-0-0--------00000000-----|0-0-------0-0-0----------000000-0---|
  * *       * * *        ********      * *       * * *          ******
  
--Pre Chorus pt1--

Guitar 1
D|------------------------------------|------------------------------------|
A|------------------------------------|------------------------------------|
F|------------------------------------|------------------------------------|
C|------------------------------------|------------------------------------|
G|0-----------8---7-----------10--8---|------------------------------------|
C|0-000-000-0---0---0-0-000-0---0-----|0-0-000-0--8-0-7-0-5-0-7-5-3--------|
  * *** *** *   *   * * *** *   *      * * *** *  * * * * * * * * *
  
D|------------------------------------|------------------------------------|
A|------------------------------------|------------------------------------|
F|------------------------------------|------------------------------------|
C|---------------------------------7--|------------------------------------|
G|0-----------8---7----------7-8-5----|------------------------------------|
C|0-000-000-0---0---0-0-000-----------|0-0-000-0--8-0-7-0-5-0-7-5-3--------|
  * *** *** *   *   * * ***            * * *** *  * * * * * * * * *

Guitar 2
D|------------------------------------|------------------------------------|
A|------------------------------------|------------------------------------|
F|------------------------------------|------------------------------------|
C|------------------------------------|------------------------------------|
G|0-----------8---7-----------10--8---|------------------------------------|
C|0-000-000-0---0---0-0-000-0---0-----|0-0-000-0--8-0-7-0-5-0-7-5-3--------|
  * *** *** *   *   * * *** *   *      * * *** *  * * * * * * * * *
D|------------------------------------|------------------------------------|
A|------------------------------------|------------------------------------|
F|------------------------------------|------------------------------------|
C|------------------------------------|------------------------------------|
G|0-----------8---7----------3-5-0-7--|------------------------------------|
C|0-000-000-0---0---0-0-000-----------|0-0-000-0--8-0-7-0-5-0-7-5-3--------|
  * *** *** *   *   * * ***            * * *** *  * * * * * * * * * 

--Pre Chorus pt2--

Guitar 1
D|------------------------------------|------------------------------------|
A|------------------------------------|------------------------------------|
F|------------------------------------|------------------------------------|
C|------------------------------------|------------------------------------|
G|0-------------8-7-----------10--8---|------------------------------------|
C|0-000-000-000--0--0-000-000---0-----|0-000-000--8-0-7-0-5-0-7-5-3--------|
  * *** *** ***  *  * *** ***   *      * *** ***  * * * * * * * * *

D|------------------------------------|------------------------------------|
A|------------------------------------|------------------------------------|
F|------------------------------------|------------------------------------|
C|---------------------------------7--|------------------------------------|
G|0-------------8-7----------7-8-5----|------------------------------------|
C|0-000-000-000--0--0-000-00----------|0-000-000--8-0-7-0-5-0-7-5-3--------|
  * *** *** ***  *  * *** **           * *** ***  * * * * * * * * *
 
Guitar 2
D|------------------------------------|------------------------------------|
A|------------------------------------|------------------------------------|
F|------------------------------------|------------------------------------|
C|------------------------------------|------------------------------------|
G|0-------------8-7-----------10--8---|------------------------------------|
C|0-000-000-000--0--0-000-000---0-----|0-000-000--8-0-7-0-5-0-7-5-3--------|
  * *** *** ***  *  * *** ***   *      * *** ***  * * * * * * * * *

D|------------------------------------|------------------------------------|
A|------------------------------------|------------------------------------|
F|------------------------------------|------------------------------------|
C|------------------------------------|------------------------------------|
G|0-------------8-7----------3-5-0-7--|------------------------------------|
C|0-000-000-000--0--0-000-00----------|0-000-000--8-0-7-0-5-0-7-5-3--------|
  * *** *** ***  *  * *** **           * *** ***  * * * * * * * * *

--Chorus--

Guitar 1
D|------------------------------------|------------------------------------|
A|------------------------------------|------------------------------------|
F|------------------------------------|------------------------------------|
C|------------7---5---------5---7-----|------------7---5----------5--------|
G|----5---8-----------5h8-------------|----5---8-----------5h8--------5----|
C|8-8---8---8---8---5-----5---5-------|0-0---0---0---0---0-----0----0------|
  * *   *   *   *   *     *   *        * *   *   *   *   *     *    *
  
D|------------------------------------|------------------------------------|
A|------------------------------------|------------------------------------|
F|------------------------------------|------------------------------------|
C|--------3---7---5---------5---7-----|------------7---5----------5--------|
G|----5---------------5h8-------------|----5---8-----------5h8--------5----|
C|3-3---3---3---3---5-----5---5-------|0-0---0---0---0---0-----0----0------|
  * *   *   *   *   *     *   *        * *   *   *   *   *     *    *
  
D|------------------------------------|------------------------------------|
A|------------------------------------|------------------------------------|
F|------------------------------------|------------------------------------|
C|------------7---5---------5---7-----|------------7---5----------5--------|
G|----5---8-----------5h8-------------|----5---8-----------5h8--------5----|
C|8-8---8---8---8---5-----5---5-------|0-0---0---0---0---0-----0----0------|
  * *   *   *   *   *     *   *        * *   *   *   *   *     *    *
  
D|------------------------------------|------------------------------------|
A|------------------------------------|------------------------------------|
F|------------------------------------|------------------------------------|
C|--------3---7---5---------5---7-----|------------7---5----------5--------|
G|----5---------------5h8-------------|----5---8-----------5h8--------5----|
C|3-3---3---3---3---5-----5---5-------|0-0---0---0---0---0-----0----0------|
  * *   *   *   *   *     *   *        * *   *   *   *   *     *    *  
D|------------------------------------|
A|------------------------------------|
F|------------------------------------|
C|------------7---5---------5---7-----|
G|----5---8-----------5h8-------------|
C|8-8---8---8---8---5-----5---5-------|
  * *   *   *   *   *     *   *        

Guitar 2
D|------------------------------------|------------------------------------|
A|------------------------------------|------------------------------------|
F|------------------------------------|------------------------------------|
C|8~~~~~~----7------5~~~~~~~~~~-------|0~~~~~~~~~~~~~~~~~~~~~~~~~~~~~~~~~~~|
G|8~~~~~~----7------5~~~~~~~~~~-------|0~~~~~~~~~~~~~~~~~~~~~~~~~~~~~~~~~~~|
C|8~~~~~~----7------5~~~~~~~~~~-------|0~~~~~~~~~~~~~~~~~~~~~~~~~~~~~~~~~~~|

D|------------------------------------|------------------------------------|
A|------------------------------------|------------------------------------|
F|------------------------------------|------------------------------------|
C|3~~~~~~~~~~~~~----5~~~~~~~~~~~~~~~--|0~~~~~~~~~~~~~~~~~~~~~~~~~~~~~~~~~~~|
G|3~~~~~~~~~~~~~----5~~~~~~~~~~~~~~~--|0~~~~~~~~~~~~~~~~~~~~~~~~~~~~~~~~~~~|
C|3~~~~~~~~~~~~~----5~~~~~~~~~~~~~~~--|0~~~~~~~~~~~~~~~~~~~~~~~~~~~~~~~~~~~|

D|------------------------------------|------------------------------------|
A|------------------------------------|------------------------------------|
F|------------------------------------|------------------------------------|
C|------------------------------------|------------------------------------|
G|------------------------------------|------------------------------------|
C|8888888888888888855555555555555555--|000000000000000000000000000000000000| Tremolo Picking

D|------------------------------------|------------------------------------|
A|------------------------------------|------------------------------------|
F|------------------------------------|------------------------------------|
C|------------------------------------|------------------------------------|
G|------------------------------------|------------------------------------|
C|3333333333333333355555555555555555--|000000000000000000000000000000000000| Tremolo Picking

D|------------------------------------|
A|------------------------------------|
F|------------------------------------|
C|8~~~~~~----7------5~~~~~~~~~~-------|
G|8~~~~~~----7------5~~~~~~~~~~-------|
C|8~~~~~~----7------5~~~~~~~~~~-------|

--Verse 2--

Guitar 1 + 2
D|------------------------------------|------------------------------------|
A|------------------------------------|------------------------------------|
F|------------------------------------|------------------------------------|
C|------------------------------------|------------------------------------| x2
G|----5---7-------8---10---8-7--3h5---|----5---7-------8---7---8-7--3h5----|
C|0-0---0---0-0-0---0----0------------|0-0---0---0-0-0---0---0-------------|
  * *   *   * * *   *    *             * *   *   * * *   *   *

Guitar 1
D|------------------------------------|------------------------------------|
A|------------------------------------|------------------------------------|
F|------------------------------------|------------------------------------|
C|------------------------------------|------------------------------------| x2
G|----5---7-------8---10---8-7--3h5---|----5---7-------8---7---8-7--3h5----|
C|0-0---0---0-0-0---0----0------------|0-0---0---0-0-0---0---0-------------|
  * *   *   * * *   *    *             * *   *   * * *   *   *

Guitar 2
D|------------------------------------|------------------------------------|
A|------------------------------------|------------------------------------|
F|------------------------------------|------------------------------------|
C|------------------------------------|----------------7---5---7-5---------| x2
G|----5---7-------8---10---8-7--3h5---|----5---7--------------------7-8----|
C|0-0---0---0-0-0---0----0------------|0-0---0---0-0-0---0---0-------------|  
  * *   *   * * *   *    *             * *   *   * * *   *   * 
  
--Chorus--
Repeat the chorus exactly the same as last time

--Outro--

Guitar 1 + 2
D|------------------------------------|------------------------------------|
A|------------------------------------|------------------------------------|
F|------------------------------------|------------------------------------|
C|------------------------------------|------------------------------------|
G|------------------------------------|------------------------------------|
C|0-0-000-000-0-0-0-0-0-0-0-0-0-0-000-|0-0-000-000-0-8-0-7-0-5-0-7-5-3-----|
  * * *** *** * * * * * * * * * * ***  * * *** *** * * * * * * * * * *
  
D|------------------------------------|------------------------------------|
A|------------------------------------|------------------------------------|
F|------------------------------------|------------------------------------|
C|------------------------------------|------------------------------------|
G|------------------------------------|------------------------------8-----|
C|0-0-000-000-0-0-0-0-0-0-0-0-0-0-000-|0-000--000--0-8-0-7-0-5-0-7-5-------|
  * * *** *** * * * * * * * * * * ***  * ***  ***  * * * * * * * * * 
  
Guitar 1
D|------------------------------------|------------------------------------|
A|------------------------------------|------------------------------------|
F|------------------------------------|------------------------------------|
C|------------------------------------|------------------------------------|
G|-------------8--7-----------10--8---|------------------------------------|
C|0-0-000-000-0--0--0-0-0-0-0---0-----|0-0-000-0---0-8-0-7-0-5-0-7-5-3-----|
  * * *** *** *  *  * * * * *   *      * * *** *   * * * * * * * * * *

D|------------------------------------|------------------------------------|
A|------------------------------------|------------------------------------|
F|------------------------------------|------------------------------------|
C|------------------------------------|------------------------------------|
G|-------------8--7---------3-5-0-7///|------------------------------------|
C|0-0-000-000-0--0--0-0-0-0-----------|0-0-000-0---0-8-0-7-0-5-0-7-5-3-----|
  * * *** *** *  *  * * * *            * * *** *   * * * * * * * * * *
  
D|------------------------------------|
A|------------------------------------|
F|------------------------------------|
C|0~~~~~~~~~~~~~~~~~~~~~~~~~~~~~~~~~~~|
G|0~~~~~~~~~~~~~~~~~~~~~~~~~~~~~~~~~~~|
C|0~~~~~~~~~~~~~~~~~~~~~~~~~~~~~~~~~~~|  

Guitar 2
D|------------------------------------|------------------------------------|
A|------------------------------------|------------------------------------|
F|------------------------------------|------------------------------------|
C|------------------------------------|------------------------------------|
G|------------------------------------|------------------------------------|
C|0-0-000-000-0-0-0-0-0-0-0-0-0-0-000-|0-0-000-000-0-8-0-7-0-5-0-7-5-3-----|
  * * *** *** * * * * * * * * * * ***  * * *** *** * * * * * * * * * *
  
D|------------------------------------|------------------------------------|
A|------------------------------------|------------------------------------|
F|------------------------------------|------------------------------------|
C|------------------------------------|------------------------------------|
G|------------------------------------|------------------------------------|
C|0-0-000-000-0-0-0-0-0-0-0-0-0-0-000-|0-000--000--0-8-0-7-0-5-0-7-5-3-----|
  * * *** *** * * * * * * * * * * ***  * ***  ***  * * * * * * * * * *

D|------------------------------------|
A|------------------------------------|
F|------------------------------------|
C|0~~~~~~~~~~~~~~~~~~~~~~~~~~~~~~~~~~~|
G|0~~~~~~~~~~~~~~~~~~~~~~~~~~~~~~~~~~~|
C|0~~~~~~~~~~~~~~~~~~~~~~~~~~~~~~~~~~~|




| * = Palm Mute      |
|[7]= Pinch Harmonic |
| ~ = Let Ring       |
| / = Slide down     |
| h = Hammer On      |
Tap to rate this tab
 
# A B C D E F G H I J K L M N O P Q R S T U V W X Y Z