Song name
# A B C D E F G H I J K L M N O P Q R S T U V W X Y Z

As I Lay Dying - Condemned tab

 This is my favorite intro to any song. This is my first tab, so give me some feedback 
if you like it.


              .= palm mute
              *= Pinch harmonic


D [---------------------------------------------------------]
A [---------------------------------------------------------]
F [---------------------------------------------------------]
C [---------------------------------------------------------]
G [----5-5-----6-------------5---6-3h5-33333-5*-------------]
C [-0-0-0-0-3-5-0-3-5-6-3-3---0-0------33333----------------]
    . . . . . . . . . . . .   . .      .....

D [---------------------------------------------------------]
A [---------------------------------------------------------]
F [---------------------------------------------------------]
C [---------------------------------------------------------]
G [----5-5-----6-----------6p5-6-3h5-33333-5*---------------]
C [-0-0-0-0-3-5-0-3-5-6-3-3---0-0----33333------------------]
    . . . . . . . . . . . .   . .    .....
Tap to rate this tab
 
# A B C D E F G H I J K L M N O P Q R S T U V W X Y Z