Song name
# A B C D E F G H I J K L M N O P Q R S T U V W X Y Z

As I Lay Dying - Parallels tab

Hi guys, I'm an amateur and this is my first contribution to the site hope you like it, 
this is my version of the song Parallels BY AS I LAY DYING .. look at the tuning so that 
no confusion ...... I hope this clear tablature .... ok there is.

the open string is PALM MUTTING

Tunning:

1 :D               PALM MUTTING:____P.M
2 :A               SLIDE : /
3 :F                HAMMER ON: h
4 :D               PULL OFF:  p
5 :G               SUSTAIN ?? : z
6 :D               BEND: b (NOTE)

Intro

  Guitar 1
|-----------------------------------------------------------------------------|
|-----------------------------------------------------------------------------|
|-----------------------------------------------------------------------------|     x5
|---------------------------7-------------------------------------------------|
|-9-10h9--7--------7-7--------7----7------7--7-----7-----7--7---7-7--------7--|
|------------10/12-----0-x-------x----------x---0-----0-x--x--x------0-12-----|




Verse

  Guitars 1 and 2
|-------------------------------------------------------------------------|
|-------------------------------------------------------------------------|
|-------------------------------------------------------------------------|
|--------7----------------------------------------7-----------------------|
|-7--------7---7-------7--9---10----12---7---------7--7------7-9---10-----|
|---0-0------0---0-0--------0-----0---------0-0------0---0-0-----0--------|
       ____          __     ____             __        __               _____
         P.M


  Verse

|------------------------------------------------------------------------|
|------------------------------------------------------------------------|
|------------------------------------------------------------------------|
|--------------------7------------------------------7----7-3---3---------|
|---5--7/9P-7--7-------7---7-----7--9---10---12-------------3---5--------|
|-0---0----------0-0-----0---0-0------0----0----0----0-------------------|

   __    __                 ____         __     ____         __       __      __      __
  P.M

|--------------------------------------------------------|
|--------------------------------------------------------|
|-----------5-4------------------------------------------|    X2
|------0-2------0-2h3------------------------------------|
|----3---------------------------------------------------|
|--0-----------------------------------------------------|



Heavy Breakdown

  Guitar 1
|----------------------------------|
|----------------------------------|
|----------------------------------|
|----------------------------------|
|-7-------7------7--7---7-----7----|
|--0-x--0---0--0--x------0-12------| X4


Guitar 2
|------------------------------------|
|------------------------------------|
|------------------------------------|
|------------------------------------|
|-0-0-0--0-0-0--0-0-0-0--0-0-0-0-----|
|-0-0-0--0-0-0--0-0-0-0--0-0-0-0-----| X2




the second riff guitar 2 is:

Guitar 2


|-----------------------------|                        To play this part you should do it 4 times.
|-----------------------------|                         FIRTS 2 TIMES YOU SHOULD DO IT WITH
|-9------9---9-9--9----9---9--|                         PALM MUTTING
|---0-x----0-----x-------0----|   X4
|-----------------------------|
|-----------------------------|


After you should repeat the first verse


Now the next riff:


  Guitars 1 and 2
|------------------------------------------------------------------------------|
|------------------------------------------------------------------------------|
|------------------------------------------------------------------------------|
|-3-----3-----3-----3-----3---3--5---5---3----3----3----3-----3------2---2-----|  X2
|---7-----7-----7-----7-----7--------------7----7----7----7------7-6-----------|
|-----0-----0-----0-----0----------0---------0----0----0----0-----------0------|


Chorus:


  Guitar 1  :X5

|-------------------------------------------------------------------------------------|
|------------------------------15-----------------------------------------------------|
|-14-16p14-12-------12-12--------12----12----12----12----12-----12--12-12-----12------|
|--------------14h15-------0-x-------x-----------x-----0-----x-15---x------0-15-------|
|-------------------------------------------------------------------------------------|
|-------------------------------------------------------------------------------------|



  Guitar 2  :X5

|-------------------------------------------------------------------------------------|
|------------------------------12-----------------------------------------------------|
|-11-12p11--9-------9--9---------9---12------9----9--------9------9---9-9-----9-------|
|--------------10h12-------0-x-----12-----------x---0---------x-12---x----0-12--------|
|-------------------------------------------------------------------------------------|
|-------------------------------------------------------------------------------------|



The next riff is:


  Guitars 1
|------------------------------------------------------------------------------|
|------------------------------------------------------------------------------|
|------------------------------------------------------------------------------|
|-3-----3-----3-----3-----3---3--5---5---3----3----3----3-----3------2---2-----|  X2
|---7-----7-----7-----7-----7--------------7----7----7----7------7-6-----------|
|-----0-----0-----0-----0----------0---------0----0----0----0-----------0------|



|------------------------------------------------------------------------------|
|------------------------------------------------------------------------------|
|------------------------------------------------------------------------------|
|-5-----5-----5-----5-----5---5--7---7---5----5----5----5-----5------4---4-----|  X2
|---9-----9-----9-----9-----9--------------9----9----9----9------9-8-----------|
|-----0-----0-----0-----0----------0---------0----0----0----0-----------0------|





  Guitar 2
|------------------------------------------------------------------------------|
|------------------------------------------------------------------------------|
|------------------------------------------------------------------------------|
|-3-----3-----3-----3-----3---3--5---5---3----3----3----3-----3------2---2-----|  X4
|---7-----7-----7-----7-----7--------------7----7----7----7------7-6-----------|
|-----0-----0-----0-----0----------0---------0----0----0----0-----------0------|




You already know the chorus......





 Guitar 1


|-------------------------------------------------------------------------|
|-------------------------------------------------------------------------|
|-9-----------------------------------------------------------------------|
|-0-----------------------------------------------------------------------|
|-0-----------------------------------------------------------------------|
|-0-----------------------------------------------------------------------|



Guitar 2


|-------------------------------|
|-------------------------------|
|-9------9---9-9--9----9---9----|
|---0-x----0-----x-------0------|   X2
|-------------------------------|
|-------------------------------|


| Guitar 1


|---------------------------------------------------------------------|
|---------------------------------------------------------------------|
|---------------------------------------------------------------------|
|-0-0---0-0---0-0---0-0---0-0-0-0-7-7---7-7---7-7---7-7---7-7-7-7-----|
|-2-2---2-2---2-2---2-2---2-2-2-2-9-9---9-9---9-9---9-9---9-9-9-9-----|
|-0-0---0-0---0-0---0-0---0-0-0-0-7-7---7-7---7-7---7-7---7-7-7-7-----|
|
|------------------------------------------------------------------|          X4
|------------------------------------------------------------------|
|------------------------------------------------------------------|
|-3-3---3-3---3-3---3-3---3-3-3-3-5-5---5-5---5-5---5-5---5-5-5-5--|
|-5-5---5-5---5-5---5-5---5-5-5-5-7-7---7-7---7-7---7-7---7-7-7-7--|
|-3-3---3-3---3-3---3-3---3-3-3-3-5-5---5-5---5-5---5-5---5-5-5-5--|


  Guitar 2 (solo 1)
|-------------------------------------------------------------------------|
|--------15-z-z-z-z-13----------------------------------------------------|
|-14-z-z---------------z-z-14-z-z-z-z-12-z-z-14-z-z-z-z-------------------|
|-------------------------------------------------------12-z-z-14-z-z-z-z-|
|-------------------------------------------------------------------------|
|-------------------------------------------------------------------------|


|---------------------------------------------------------------------------|
|-15-z-z----z-z-15-z-13-z-z------------------------------13-z-z-15-z-z------|
|--------14-----------------14-z-z-z-z-12-z-z-14-z-z-z-z---------------14-z-|
|---------------------------------------------------------------------------|
|---------------------------------------------------------------------------|
|---------------------------------------------------------------------------|
|

|-------------------------------------------------------------------------|
|----z-z-15-z-z-z-z-13-z-z------------------------------------------------|
|-14-----------------------14-z-z-z-z-12-z-z-14-z-z-z-z-------------------|
|-------------------------------------------------------12-z-z-14-z-z-z-z-|
|-------------------------------------------------------------------------|
|-------------------------------------------------------------------------|


|-------------------------------------------------------------------------|
|---------------------------------------------------------------13--------|
|---------------12-z------14-12-z-14-----------14-12-z-14-12-14----z-z-14-|
|--------12-z-z------14-z------------14-z-15-z----------------------------|
|-12-z-z------------------------------------------------------------------|
|-------------------------------------------------------------------------|
|
|----------|
|-z-z-13-z-|
|----------|
|----------|
|----------|
|----------|


Ok NOW SECOND GUITAR SOLO

Some licks you can use differents  techniques , used the techniques  with which more comfortable.


 Guitar 1 (SOLO 2)


|--------------12-14-14b-(16)--14p12----12------------------|
|-15(17)-z-z-z------------------------15------14(16)-z-z----|
|-----------------------------------------------------------|
|-----------------------------------------------------------|
|-----------------------------------------------------------|
|-----------------------------------------------------------|



|--------------------|
|-15p12-15-17p15-12--|            If you want ,you can do it with Tapping
|--------------------|
|--------------------|  X3
|--------------------|
|--------------------|



|---------------------------------------|
|-17b(19)--(17)p-15-12p---17p-15--12----|
|---------------------------------------|
|---------------------------------------|
|---------------------------------------|
|---------------------------------------|



|-14----15p-14p-12-14p----7h10p7------------------------------------------------------|
|----------------------------------10p8p7p----7h8h10h/12-/10-8p7h10p8p7p--------------|
|-------------------------------------------9---------------------------------9-z-z---|
|-------------------------------------------------------------------------------------|
|-------------------------------------------------------------------------------------|
|-----------------------------------------------------------|-------------------------|
|
|--7b-(8)----------------------------------|
|--------10--7-7-7----7h8-/10--------------|
|--------------------------------------.---|
|------------------------------------------|
|------------------------------------------|
|------------------------------------------|



|---------------------------------------------------------------------------------------|
|---------------------------------------------12----12--15-15b(16)-(15)p-12----12-15----|
|---------9----9h-11-9h11h12/-14---12-12h-14----14------------------------14------------|
|-10p7h10---10--------------------------------------------------------------------------|
|---------------------------------------------------------------------------------------|
|---------------------------------------------------------------------------------------|



|--12h14p12----12-14-15--17p15p14-----14-15-17---19p17p15----15-17-19p17p15-----------|
|------------15---------------------17-----------------------19-----------------19----|
|-------------------------------------------------------------------------------------|
|-------------------------------------------------------------------------------------|
|-------------------------------------------------------------------------------------|
|-------------------------------------------------------------------------------------|




|-15-17-19-------22b(24)--------------------|
|-------------------------------------------|
|-------------------------------------------|
|-------------------------------------------|
|-------------------------------------------|
|-------------------------------------------|



The guitar 2 complement the solo with the rhythm of the guitar 1

Guitar 2


|---------------------------------------------------------------------|
|---------------------------------------------------------------------|
|---------------------------------------------------------------------|
|-0-0---0-0---0-0---0-0---0-0-0-0-7-7---7-7---7-7---7-7---7-7-7-7-----|
|-2-2---2-2---2-2---2-2---2-2-2-2-9-9---9-9---9-9---9-9---9-9-9-9-----|
|-0-0---0-0---0-0---0-0---0-0-0-0-7-7---7-7---7-7---7-7---7-7-7-7-----|
|
|------------------------------------------------------------------|          X4
|------------------------------------------------------------------|
|------------------------------------------------------------------|
|-3-3---3-3---3-3---3-3---3-3-3-3-5-5---5-5---5-5---5-5---5-5-5-5--|
|-5-5---5-5---5-5---5-5---5-5-5-5-7-7---7-7---7-7---7-7---7-7-7-7--|
|-3-3---3-3---3-3---3-3---3-3-3-3-5-5---5-5---5-5---5-5---5-5-5-5--|



Ok is too late ...comming soon i will submit the next part , its really simple, while 
you have the solo ......see you latter.........
Tap to rate this tab
 
# A B C D E F G H I J K L M N O P Q R S T U V W X Y Z