Song name
# A B C D E F G H I J K L M N O P Q R S T U V W X Y Z

As I Lay Dying - Confined tab

This is tabs to this song...they sound more accarate then others..
Please comment or rate thanks...

Confined - As I Lay Dying


Tuning - CGCFAD

--------------------------------------------------------

(Feedback - Volume Swell)


[RIFF A] INTRO (2x)

|----------------------------------------------|
|----------------------------------------------|
|----------------------------------------------|
|----------------------------------------------|
|-0-0-0--0-0--0-0--0-0-0--0-0--0-0--0-0-0--0-0-|
|-0-0-0--0-0--0-0--0-0-0--0-0--0-0--0-0-0--0-0-|



[RIFF B] PRE-VERSE (2x)


|-------------------------------------------|
|-------------------------------------------|
|-------------------------------------------|
|-------------------------------------------|
|-----5---7--------8---10----8-7--3-5-------|
|-0-0---0---0--0-0---0----0-----------------|

|-------------------------------------------|
|-------------------------------------------|
|-------------------------------------------|
|-------------------------------------------|
|-----5---7--------8---7----8-7--3-5--------|
|-0-0---0---0--0-0---0---0------------------|



[RIFF C] Verse I (3x)


|-------------------------------------------|
|-------------------------------------------|
|-------------------------------------------|
|-------------------------------------------|
|-----5---7--------8---10----8-7--3-5-------|
|-0-0---0---0--0-0---0----0-----------------|

|-------------------------------------------|
|-------------------------------------------|
|-------------------------------------------|
|-------------------------------------------|
|-----5---7--------8---7----8-7--3-5--------|
|-0-0---0---0--0-0---0---0------------------|

(Then)

|-------------------------------------------|
|-------------------------------------------|
|-------------------------------------------|
|-------------------------------------------|
|-----5---7--------8---10----8-7--3-5-------|
|-0-0---0---0--0-0---0----0-----------------|

|-------------------------------------------|
|-------------------------------------------|
|-------------------------------------------|
|----------------------------(8*)~~~~-------|
|-----5---7--------8---7--------------------|
|-0-0---0---0--0-0---0----0-----------------|

(Then)

 (2x)
|-------------------------------------------|
|-------------------------------------------|
|-------------------------------------------|
|-------------------------------------------|
|-----5---7--------8---10----8-7--3-5-------|
|-0-0---0---0--0-0---0----0-----------------|

|-------------------------------------------|
|-------------------------------------------|
|-------------------------------------------|
|-------------------------------------------|
|-----5---7--------8---7----8-7--3-5--------|
|-0-0---0---0--0-0---0---0------------------|



[RIFF D] PRE-CHORUS (2x)

|-------------------------------------------|
|-------------------------------------------|
|-------------------------------------------|
|-------------------------------------------|
|-0--0-0-0--0-0-0-----8-----7---------------|
|-0--0-0-0--0-0-0--0-----0------------------|

|-------------------------------------------|
|-------------------------------------------|
|-------------------------------------------|
|-------------------------------------------|
|-0--0-0--0-0-0-----10-----8----------------|
|-0--0-0--0-0-0--0------0-------------------|

|-------------------------------------------|
|-------------------------------------------|
|-------------------------------------------|
|-------------------------------------------|
|-0--0--0--0----1---0----------0------------|
|-0--0--0--0--0---0---0--5--0-----5--3------|



|-------------------------------------------|
|-------------------------------------------|
|-------------------------------------------|
|-------------------------------------------|
|-0--0-0-0--0-0-0-----8-----7---------------|
|-0--0-0-0--0-0-0--0-----0------------------|

|-------------------------------------------|
|-------------------------------------------|
|-------------------------------------------|
|-------------------------7-----------------|
|-0--0-0--0-0-0--5--8--5--------------------|
|-0--0-0--0-0-0-----------------------------|

|-------------------------------------------|
|-------------------------------------------|
|-------------------------------------------|
|-------------------------------------------|
|-0--0--0--0----1---0----------0-----8------|
|-0--0--0--0--0---0---0--5--0-----5---------|



[RIFF E] CHORUS (2x)


|------------------------|--------------------------|
|------------------------|--------------------------|
|------------------------|--------------------------|
|-------------------7----|-5--------------5-----7---|
|-------5-----8----------|-------5--8---------------|
|-8--8-----8-----8-----8-|----5--------5-----5------|

|------------------------|------------------------|
|------------------------|------------------------|
|------------------------|------------------------|
|-------------------7----|-5--------------5-------|
|-------5-----8----------|-------5--8-----------5-|
|-0--0-----0-----0-----0-|----0--------0-----0----|


|------------------------|--------------------------|
|------------------------|--------------------------|
|------------------------|--------------------------|
|-------------------7----|-5--------------5-----7---|
|-------5-----8----------|-------5--8---------------|
|-3--3-----3-----3-----3-|----5--------5-----5------|

|------------------------|------------------------|
|------------------------|------------------------|
|------------------------|------------------------|
|-------------------7----|-5--------------5-------|
|-------5-----8----------|-------5--8-----------5-|
|-0--0-----0-----0-----0-|----0--------0-----0----|


[RIFF F] BRIDGE

|------------------------|--------------------------|
|------------------------|--------------------------|
|------------------------|--------------------------|
|-------------------7----|-5--------------5---------|
|-------5-----8----------|-------5--8-----------5---|
|-8--8-----8-----8-----8-|----5--------5-----5------|


[RIFF B AGAIN] VERSE II (4x)


|-------------------------------------------|
|-------------------------------------------|
|-------------------------------------------|
|-------------------------------------------|
|-----5---7--------8---10----8-7--3-5-------|
|-0-0---0---0--0-0---0----0-----------------|

|-------------------------------------------|
|-------------------------------------------|
|-------------------------------------------|
|-------------------------------------------|
|-----5---7--------8---7----8-7--3-5--------|
|-0-0---0---0--0-0---0---0------------------|



[RIFF E AGAIN] CHORUS (2x)


|------------------------|--------------------------|
|------------------------|--------------------------|
|------------------------|--------------------------|
|-------------------7----|-5--------------5-----7---|
|-------5-----8----------|-------5--8---------------|
|-8--8-----8-----8-----8-|----5--------5-----5------|

|------------------------|------------------------|
|------------------------|------------------------|
|------------------------|------------------------|
|-------------------7----|-5--------------5-------|
|-------5-----8----------|-------5--8-----------5-|
|-0--0-----0-----0-----0-|----0--------0-----0----|


|------------------------|--------------------------|
|------------------------|--------------------------|
|------------------------|--------------------------|
|-------------------7----|-5--------------5-----7---|
|-------5-----8----------|-------5--8---------------|
|-3--3-----3-----3-----3-|----5--------5-----5------|

|------------------------|------------------------|
|------------------------|------------------------|
|------------------------|------------------------|
|-------------------7----|-5--------------5-------|
|-------5-----8----------|-------5--8-----------5-|
|-0--0-----0-----0-----0-|----0--------0-----0----|


[RIFF F] BRIDGE

|------------------------|--------------------------|
|------------------------|--------------------------|
|------------------------|--------------------------|
|-------------------7----|-5--------------5---------|
|-------5-----8----------|-------5--8-----------5---|
|-8--8-----8-----8-----8-|----5--------5-----5------|



[RIFF G] VERSE III


|----------------------------------------------|
|----------------------------------------------|
|----------------------------------------------|
|----------------------------------------------|
|-0-0--0-0-0--0-0-0--0-0--0-0--0-0--0-0--0-0-0-|
|-0-0--0-0-0--0-0-0--0-0--0-0--0-0--0-0--0-0-0-|

|---------------------------------------------------|
|---------------------------------------------------|
|---------------------------------------------------|
|---------------------------------------------------|
|-0--0-0--0--0--0-0-0-----1-----0-----------0-------|
|-0--0-0--0--0--0-0-0--0-----0-----0--5--0-----5--3-|

|----------------------------------------------|
|----------------------------------------------|
|----------------------------------------------|
|----------------------------------------------|
|-0-0--0-0-0--0-0-0--0-0--0-0--0-0--0-0--0-0-0-|
|-0-0--0-0-0--0-0-0--0-0--0-0--0-0--0-0--0-0-0-|

|------------------------------------------------|
|------------------------------------------------|
|------------------------------------------------|
|------------------------------------------------|
|-0--0-0--0--0--0-0-0-----1-----0-----------0----|
|-0--0-0--0--0--0-0-0--0-----0-----0--5--0-----5-|


[RIFF D] OUTRO (2x)

|-------------------------------------------|
|-------------------------------------------|
|-------------------------------------------|
|-------------------------------------------|
|-0--0-0-0--0-0-0-----8-----7---------------|
|-0--0-0-0--0-0-0--0-----0------------------|

|-------------------------------------------|
|-------------------------------------------|
|-------------------------------------------|
|-------------------------------------------|
|-0--0-0--0-0-0-----10-----8----------------|
|-0--0-0--0-0-0--0------0-------------------|

|-------------------------------------------|
|-------------------------------------------|
|-------------------------------------------|
|-------------------------------------------|
|-0--0--0--0----1---0----------0------------|
|-0--0--0--0--0---0---0--5--0-----5--3------|



|-------------------------------------------|
|-------------------------------------------|
|-------------------------------------------|
|-------------------------------------------|
|-0--0-0-0--0-0-0-----8-----7---------------|
|-0--0-0-0--0-0-0--0-----0------------------|

|-------------------------------------------|
|-------------------------------------------|
|-------------------------------------------|
|-------------------------7-----------------|
|-0--0-0--0-0-0--5--8--5--------------------|
|-0--0-0--0-0-0-----------------------------|

|-------------------------------------------|
|-------------------------------------------|
|-------------------------------------------|
|-------------------------------------------|
|-0--0--0--0----1---0----------0-----8------|
|-0--0--0--0--0---0---0--5--0-----5---------|



|-------------------------------------------|
|-------------------------------------------|
|-------------------------------------------|
|-------------------------------------------|
|-0-~~~~~~~~~~~-----------------------------|
|-0-~~~~~~~~~~~-----------------------------|
Tap to rate this tab
 
# A B C D E F G H I J K L M N O P Q R S T U V W X Y Z