Song name
# A B C D E F G H I J K L M N O P Q R S T U V W X Y Z

As I Lay Dying - Upside Down Kingdom tab

  guitar 1
|-------------------------------------------------------------|
|-------------------------------------------------------------|
|-------------------------------------------------------------|
|-3--3--0--(0)--(0)--(0)--(0)---5--5--2--(2)--(2)--(2)--(2)---|
|-3--3--0--(0)--(0)--(0)--(0)---5--5--2--(2)--(2)--(2)--(2)---|
|-3--3--0--(0)--(0)--(0)--(0)---5--5--2--(2)--(2)--(2)--(2)---|
|
|
| guitar 2
|-------------------------------------------------------------|
|-------------------------------------------------------------|
|-10-10-7--(7)--(7)--(7)--(7)---12-12-9--(9)--(9)--(9)--(9)---|
|-x--x--x-----------------------x--x--x-----------------------|
|-8--8--5--(5)--(5)--(5)--(7)---10-10-7--(7)--(7)--(7)--(9)---|
|-------------------------------------------------------------|

  guitar 1
|-------------------------------------------------------------|
|-------------------------------------------------------------|
|-------------------------------------------------------------|
|-3--3--0--(0)--(0)--(0)--(0)---5--5--2--(2)--(2)--(2)--(2)---|
|-3--3--0--(0)--(0)--(0)--(0)---5--5--2--(2)--(2)--(2)--(2)---|
|-3--3--0--(0)--(0)--(0)--(0)---5--5--2--(2)--(2)--(2)--(2)---|
|                                                              \
|                                                               X2
| guitar 2                                                     /
|-------------------------------------------------------------|
|-------------------------------------------------------------|
|-------------------------------------------------------------|
|-----------------------7-7-----5-5-------------------5-5-----|
|-8-8-5-(5)-5-7-8-8-5-5-----8-8-----7-(7)-5-7-8-8-5-5-----7-7-|
|-------------------------------------------------------------|

  guitar 1
|----------------------------------------------------------------------|
|--------------------------10-10-------8-8---------------------8-8-----|
|10-10-7-(7)-7-9-10-10-7-7-------10-10-----9-(9)-7-9-10-10-7-7-----9-9-|
|----------------------------------------------------------------------|
|----------------------------------------------------------------------|
|----------------------------------------------------------------------|
|                                                                       \
|                                                                        X2
| guitar 2                                                              /
|----------------------------------------------------------------------|
|----------------------------------------------------------------------|
|----------------------------------------------------------------------|
|--------------------------7--7--------5-5---------------------5-5-----|
|-8-8-5--(5)--5-7-8--8-5-5-------8-8-------7-(7)-5-7-8--8--5-5-----7-7-|
|----------------------------------------------------------------------|
Tap to rate this tab
# A B C D E F G H I J K L M N O P Q R S T U V W X Y Z