Song name
# A B C D E F G H I J K L M N O P Q R S T U V W X Y Z

As I Lay Dying - Washed Away tab

D------------------------------------------------------------------       \
A------------------------------------------------------------------       |
F--10-----10-----10---9---7----9-----9---9-7-----------------------       |
C-------7------7-------------------7-----------10---7--------------       | 
G------------------------------------------------------------------       |
C----0------0------0---0--------7-----7-----7----7---7-------------       |
                                                                          |> x2
D------------------------------------------------------------------       |
A----------------------------10------------------------------------       |
F--10------10------10---12--------9-------9----9-------------------       |
C-------10------10-------------------------------12----10----------       |
G-----8-------8-------8----8----8------10--------------------12----       |
C-----------------------------------10------10------10----10----10-       /

D-----------------------------------------------------***----------|
A-----------------------------------------------------***----------|
F------------------5---7------------------7-----8-----***----------|
C--8-----8-----8------------11-----11-----------------***----------|
G------5-----5-------------------7------7-----7-----7-***----------|
C----5-----5-----5---5---5-----7------7-----7-----7---***----------|


After you finish repeat whole thing from the beginning along with the
repetition of first 2 lines and after finishing the 2nd time instead of 
starting to play it from the top just play this chord.

D-----|
A-----|
F--10-|
C--7--|
G--x--|
C--0--|

Should be it...
Thank you for checking, and let me know of any mistakes!
Tap to rate this tab
# A B C D E F G H I J K L M N O P Q R S T U V W X Y Z