Song name
# A B C D E F G H I J K L M N O P Q R S T U V W X Y Z

As I Lay Dying - Anodyne Sea tab

Intro:
Eb|----------------------------|
Bb|----------------------------|
Gb|----------------------------|
Db|-0--------------------------|
Ab|-0------0-5-8-7-5-----0-4-7-|
Db|-0--000-----------000-------|
... ...
Eb|----------------------------|
Bb|----------------------------|
Gb|----------------------------|
Db|----------------------3-7-2-|
Ab|-8-5-----0-5-8-7-5----1-5-0-|
Db|-----000-----------00-------|
... ..
Eb|----------------------------|
Bb|----------------------------|
Gb|----------------------------|
Db|-0------------------------3-|
Ab|-0------0-5-8-7-5-----0-4---|
Db|-0--000-----------000-------|
... ...
Eb|-------------------------------|
Bb|-------------------------------|
Gb|-------------------------------|
Db|-5-2-----5-8-5-7-5-----5---7---|
Ab|-------------------8-7---8---7-|
Db|-----000-----------------------|
... . . . . . . . .
Verse: Play Intro 2 More Times:
Eb|----------------------------------------|
Bb|----------------------------------------|
Gb|----------------------------------------|
Db|-7-8-7-----------------5----7----8----5-|
Ab|-5-6-5-----------------5----5----5----5-|
Db|-------000000000000-00---00---00---00---|
............ .. .. .. ..
Eb|----------------------------------------|
Bb|----------------------------------------|
Gb|----------------------------------------|
Db|-7-8-7-----------------5---10----8----5-|
Ab|-5-6-5-----------------5----5----5----5-|
Db|-------000000000000-00---00---00---00---|4x
............ .. .. .. ..
Chorus:
Eb|----------------------------|
Bb|----------------------------|
Gb|----------------------------|
Db|-5------3------1------5-----|
Ab|-5-16x--3-16x--1-16x--5-16x-|
Db|-5------3------1------5-----|

|---------------------------------------------------------------------------------|
|-10b-8--11-10-11-8----10-11-11-11b-10-11-11-8------------------------------------|
|---------7--------------7-8------------------------------------------------------|
|---------------------------------------------------------------------------------|
|---------------------------------------------------------------------------------|
|---------------------------------------------------------------------------------|
Tap to rate this tab
# A B C D E F G H I J K L M N O P Q R S T U V W X Y Z