Song name
# A B C D E F G H I J K L M N O P Q R S T U V W X Y Z

As I Lay Dying - Losing Sight tab

Help us improve GuitareTab! Take a short survey!
band:  As i Lay Dying
song:  Losing Sight
Album: Shadows Are Security

         Tabber: dicer4   (Dereck)
         Email : dicer4@msn.com

Release notes: i saw the other tabs for this song and even thou they said four stars 
werent that accurate, so this is how i play the song "Losing Sight" by "As I Lay Dying"

    Verse
d|------------------------------------------------------------|
A|------------------------------------------------------------|
F|------------------------------------------------------------|
C|---------------3-------------3-0----------------3---------2-|
G|-------------5---------5-0-3------------------5--------3-0--|
C|-000-000-000-----000-0------------000-000-000-----000-3-----|
pm ... ... ...     ... .            ... ... ...     ...

  Interlude Gtr 1
d|-----------------------------------------------------------|
A|-----------------------------------------------------------|
F|-----------------------------------------------------------|
C|----------3h5---7---7---5---7---5----------3/5-------------|
G|-0----------------------------------8---7--------8---7---5-|
C|-0-00-000-----0---0---0---5---5---5---5--------3---3---3---|
pm   .. ...     .   .   .   .   .   .   .        .   .   .
             Gtr 2
d|---------------------|
A|---------------------|
F|---------------------|
C|-0-~-----------------|
G|-0-~-----------------|
C|-0-~-----------------|

             Gtr 1
d|---------------------------------------------------------------|
A|---------------------------------------------------------------|
F|---------------------------------------------------------------|
C|-----------3h5---7---7--5---10---8-------------8---7-----------|
G|-0-----------------------------------12---10-----------10---8--|
C|-0-00-000------0---0--0---8----8---8----8----5---5---5----5----|
pm   .. ...      .   .  .   .    .   .    .    .   .   .    .
             Gtr 2
d|------------------------|------------------|-------------------|
A|------------------------|------------------|-------------------|
F|------------------------|------------------|-------------------|
C|-0-~--------------------|-8-~--------------|-5-~---------------|
G|-0-~--------------------|-8-~--------------|-5-~---------------|
C|-0-~--------------------|-8-~--------------|-5-~---------------|

             Gtr 1
d|-----------------------------------------------------------|
A|-----------------------------------------------------------|
F|-----------------------------------------------------------|
C|----------3h5---7---7---5---7---5----------3/5-------------|
G|-0----------------------------------8---7--------8---7---5-|
C|-0-00-000-----0---0---0---5---5---5---5--------3---3---3---|
pm   .. ...     .   .   .   .   .   .   .        .   .   .
             Gtr 2
d|---------------------|
A|---------------------|
F|---------------------|
C|-0-~-----------------|
G|-0-~-----------------|
C|-0-~-----------------|

              Gtr 1
d|---------------------------------------------------------------|
A|---------------------------------------------------------------|
F|---------------------------------------------------------------|
C|-----------3h5---7---7--5---10---8-------------8---7-----------|
G|-0-----------------------------------12---10-----------10---8--|
C|-0-00-000------0---0--0---8----8---8----8----5---5---5----5----|
pm   .. ...      .   .  .   .    .   .    .    .   .   .    .
              Gtr 2
d|------------------------|------------------|-------------------|
A|------------------------|------------------|-------------------|
F|------------------------|------------------|-------------------|
C|-0-~--------------------|-8----------------|-5-----------------|
G|-0-~--------------------|-8-8-8-8-8-8-8-8--|-5-5-5-5-5-5-5-5---|
C|-0-~--------------------|-8-8-8-8-8-8-8-8--|-5-5-5-5-5-5-5-5---|
pm                            . . . . . . .      . . . . . . .

 Choures      Gtr 1
d|-----------------------------------------------------------|
A|-----------------------------------------------------------|
F|-----------------------------------------------------------|
C|----------3h5---7---7---5---7---5----------3/5-------------|
G|-0----------------------------------8---7--------8---7---5-|
C|-0-00-000-----0---0---0---5---5---5---5--------3---3---3---|
pm   .. ...     .   .   .   .   .   .   .        .   .   .
              Gtr 2
d|------------------------------------------------------------|
A|------------------------------------------------------------|
F|------------------------------------------------------------|
C|-0------------------------0------------------------5////----|
G|-0-0-000-000--0-000-000---0-0-000-000--8/10--8--7--5////----|
C|-0-0-000-000--0-000-000---0-0-000-000-0----0--0--0----------|
pm   . ... ...  . ... ...     . ... ... .    .  .  .
              Gtr 1
d|---------------------------------------------------------------|
A|---------------------------------------------------------------|
F|---------------------------------------------------------------|
C|-----------3h5---7---7--5---10---8-------------8---7-----------|
G|-0-----------------------------------12---10-----------10---8--|
C|-0-00-000------0---0--0---8----8---8----8----5---5---5----5----|
pm   .. ...      .   .  .   .    .   .    .    .   .   .    .
               Gtr 2
d|---------------------------------------------------------------|
A|---------------------------------------------------------------|
F|---------------------------------------------------------------|
C|-0------------------------8-----------5------------------------|
G|-0-0-000-000--0-000-000---8-8-888-888-5-5-555-555--------------|
C|-0-0-000-000--0-000-000---8-8-888-888-5-5-555-555--------------|
pm   . ... ...  . ... ...     . ... ...   . ... ...

 Breakdown   Both Gtrs
d|----------------------------------------------------------------|
A|----------------------------------------------------------------|
F|----------------------------------------------------------------|
C|------------------------------------------------------7---8-----|
G|-0---------------8----7--3---5----------------5-0-3-5---5---8---|
C|-0-0-0-0-0-0-0-0---00--0---0-3-0-0-0-0-0-0-0--------------------|
pm   . . . . . . .   ..  .   .   . . . . . . .

d|-----------------------------------------------------------------|
A|-----------------------------------------------------------------|
F|-----------------------------------------------------------------|
C|-----------------------------------------------------------------|
G|-0---------------8----7--3---5---------------8-8-8-8-10-10-10-10-|
C|-0-0-0-0-0-0-0-0---00--0---0-3-0-0-0-0-0-0-0-8-8-8-8-10-10-10-10-|
pm   . . . . . . .   ..  .   .   . . . . . . .


Replay verse, then THE BRIDGE!!! DUN DUN DUN!!! similar to the verse.

 bridge Both Gtrs
d|-------------------------------------------------|
A|-------------------------------------------------|
F|-------------------------------------------------|
C|-----------3----------------3-0-----------3------|
G|-000-000-5---00-000-000-5-3-----000-000-5--------|
C|-000-000-----00-000-000---------000-000----------|
pm ... ...     .. ... ...         ... ...


d|-------------------------------------------------|
A|-------------------------------------------------|
F|--------------------------10-7-------------------|
C|---------12-8-10-7--10-9-------------------------|
G|-00-000------------------------------------------|
C|-00-000------------------------------------------|
pm .. ...  .  . .  .

d|-------------------------------------------------|
A|-------------------------------------------------|
F|-------------------------------------------------|
C|-----------3----------------3-0-----------3------|
G|-000-000-5---00-000-000-5-3-----000-000-5--------|
C|-000-000-----00-000-000---------000-000----------|
pm ... ...     .. ... ...         ... ...

d|---------------------------------------|
A|---------------------------------------|
F|---------------------------------------|
C|-----------------2-3-------------------|
G|-00-000-000--5-3-----------------------|
C|-00-000-000----------------------------|
pm .. ... ...

repat the breakdown then the choures then learn a new song, by as i lay dying.

h    hammer on
/    Slide up or down (witch ever is needed)
.    palm mute
gtr  guitar
Related for Losing Sight tab