Song name
# A B C D E F G H I J K L M N O P Q R S T U V W X Y Z

As I Lay Dying - A Thousand Steps tab

================================================================
            A THOUSAND STEPS- As I Lay Dying
================================================================

Tabbed By: Noah Ray
Email: theytoldmeyouweredead@yahoo.com

Tuning: Drop C



Intro
|-------------------------| 
|-------------------------| 
|-------------------------| 
|-------------------------| 
|--8p7p5-5--8p7-5-5--0-0--| 
|--------------------0-0--|    X 8        

palm mute these triplets
|-----------------------------|-----------------------------|
|-----------------------------|-----------------------------|
|-----11----11-----11------11-|-----14-----14-----14-----14-|
|-----------------------------|-----------------------------|
|-000-9--000-9--000-9--000-9--|-000-12-000-12-000-12-000-12-|
|-000----000----000----000----|-000----000----000----000----|          

|-----------------------------|--------------------------------------|
|-----------------------------|-----20-----20-----20----20------20b~-|
|-----19----19-----19------19-|--------------------------------------|
|-----------------------------|-----17-----17-----17----17------17~--|
|-000-17-000-17-000-17-000-17-|-000----000----000---000-----000------|
|-000----000----000----000----|-000----000----000---000-----000------|  

|----------------------------------| 
|----------------------------------| 
|----------------------------------| 
|-----0~----0~-------0~----0~------| 
|-000-0~-00-0~---000-0~-00-0~-0-00-| 
|-000-0~-00-0~---000-0~-00-0~-0-00-| x 4

|-------------------------| 
|-------------------------| 
|-------------------------| 
|-------------------------| 
|--8p7p5-5--8p7-5-5--0-0--| 
|--------------------0-0--| x 9

|-------------------------------------------|------------------| 
|-------------------------------------------|------------------| 
|---------------------------------------20~-|--------15h16p15--|
|-----0~-----slide-speeds up----------------|-15h16------------| 
|--0~-0~-5\6\7\8\9\10\11\12\13\14\15\16\17~-|------------------| 
|--0~-0~-0-0-0-0-0--0--0--0--0--0--0--0--0--|------------------|

Outro
|------------------------------------------------------------| 
|------------------------------------------------------------| 
|----------------------------Random Slides-------------------| 
|------Thrash------------------------------------------------| 
|------------------------------------------------------------| 
|------------------------------------------------------------| 



Tap to rate this tab
# A B C D E F G H I J K L M N O P Q R S T U V W X Y Z