Song name
# A B C D E F G H I J K L M N O P Q R S T U V W X Y Z

As I Lay Dying - Distance Is Darkness tab

DISTANCE IS DARKNESS
TUNING: CGCFAD



PART A
D|-GUITARS 1&2-------|
A|-14-14-14----------|
F|-19-19-19----------|4x OMIT PALM MUTING 4TH TIME
C|-------------------|
G|-------------------|
C|---0--0--0-0000000-|
             .......

FILL 1
D|GUITAR 1---------|---GUITAR 2-------------------------|
A|-------8p0-------|------------------------------------|
F|-7p0------7*~~~~-|------------------------------------| 
C|----7p0----------|---12p0------17p0-12*~~~~-----------| 
G|-----------------|--------12p0------------------------|
C|-----------------|------------------------------------|

PART B
D|-GUITARS 1&2----------|-LAST TIME---|
A|--------8X------------|-HOLD CHORD--|
F|-7-7-7----------------|---7~~~~~~---| 
C|-7-7-7----------------|---7~~~~~~---|
G|-5-5-5----------------|---5~~~~~~---|
C|--0-0--0-0-0-00-------|-------------|
         . . . ..

PART C 
D|-GUITARS 1&2---------------------------------|                    
A|---------------------------------------------|
F|-77-7-7-7---77-7-7---77-7-7-7---77-7-7-7-7---| PLAY 2X 
C|-77-7-7-7---77-7-7---77-7-7-7---77-7-7-7-7---| THEN PLAY FILL B
G|-55-5-5-5---55-5-5---55-5-5-5---55-5-5-5-5---|
C|---------------------------------------------|

FILL 2
D|-------------------------|
A|-------------------------|
F|-77-7-7-7---77-7-7-7-7---|
C|-77-7-7-7---77-7-7-7-7---|
G|-55-5-5-5---55-5-5-5-5---|
C|-------------------------|

Part D.1                                  
D|-GUITAR 1------------------------------------|-GUITAR 2----------| 
A|----14---14-14-------------------------------|-------------------|
F|----19---19-19--PLAY 4X'S-----------=>-------|-------------------|
C|----------------OMIT SECOND HALF----=>-------|--0~~~~~~~---------| 
G|----------------ON 4TH TIME AND PLAY=>-------|--0~~~~~~~---------|
C|-000--000------------------------------00000-|--0~~~~~~~---------|
   ...  ...                              .....     

PART D.2
D|-GUITAR 1---------------------|-GUITAR 2-----------| 
A|----14---14-14----------------|-----PLAY 8 TIMES---|
F|----19---19-19--PLAY 8 TIMES--|--------------------|
C|------------------------------|--------------------| 
G|------------------------------|-----000---000------|
C|-000--000---------------------|-----000---000------|  
   ...  ...                           ...   ... 

PART E
D|-GUITARS 1&2--------------------------------------------------------------------------|
A|-----------8p0-------------------------8p0--------------8p0--------------------8p0----|
F|-7-7-7p0------7p0-7-7-7p0----7-7-7p0------7p0-7-7-7p0------7p0---7p0-7-7-7p0------7p0-|
C|-7-7----7p0-------7-7----7p0-7-7----7p0-------7-7----7p0------7p0----7-7----7p0-------|
G|-5-5--------------5-5--------5-5--------------5-5--------------------5-5--------------|
C|--------------------------------------------------------------------------------------|

FILL 3
D|----------------------------------------------------|
A|----------------------------------------------------|
F|-7p5p0--7p5p0----7p5p0------7p5p0---7p5p0--------7~-| 
C|------7------7-7------7-7-7-------7------7-7-7-7-7~-| 
G|----------------------------------------------------| 
C|----------------------------------------------------| 

REPEAT PART C 2x
REPEAT FILL 2 1x

PART F
D|------------------------------------|
A|------------------------------------|
F|------------------------------------|
C|-00-0-0--00-0-0-0--00-0-0--00-0-0-0-|
G|-00-0-0--00-0-0-0--00-0-0--00-0-0-0-|
C|-00-0-0--00-0-0-0--00-0-0--00-0-0-0-|
   .. . .  .. . . .  .. . .  .. . . .

PART G.1                                                                                  
D|-GUITARS 1&2------------------------------------------------------|=> GUITAR 1 REPEATS 8X       
A|------------------------------------------------------------------|=> GUITAR 2 REPEATS 4X THEN        
F|-10-101010-1010-1010-101010-14--14-14-14--15--15-15-15--15-15-15--|   PLAYS PART G.2
C|-X--X-X-X--X-X--X-X--X-X-X--X---X--X--X---X---X--X--X---X--X--X---|
G|-8--8-8-8--8-8--8-8--8-8-8--12--12-12-12--13--13-13-13--13-13-13--|
C|------------------------------------------------------------------| 


PART G.2
D|-GUITAR 2---------------------------------------------------------|
A|------------------------------------------------------------------|
F|-14--14-14-14--14-14--14-14--21--21-21-21--22--22-22-22--22-22-22-|
C|-X---X--X--X---X--X---X--X---X---X--X--X---X---X--X--X---X--X--X--|
G|-12--12-12-12--12-12--12-12--19--19-19-19--20--20-20-20--20-20-20-|
C|------------------------------------------------------------------|         
                
End
D|-----------|
A|-----------|
F|-7~~~~~~~~-|
C|-7~~~~~~~~-|
G|-5~~~~~~~~-|
C|-----------|
Tap to rate this tab
 
# A B C D E F G H I J K L M N O P Q R S T U V W X Y Z