Guitaretab - guitar tabs
Song name
# A B C D E F G H I J K L M N O P Q R S T U V W X Y Z

As I Lay Dying - Within Destruction tab

-------------------------------------------------------------------------------
			     Within Destruction - As I Lay Ding
-------------------------------------------------------------------------------

this is how
i figured to play the song
not sure if its any good so let
me know what yall think
tabbed it in drop c


    PM------------|      PM|     PM--|           PM------------|
||-------------------------------------------------------|-------------|
||o------------------------------------------------------|-------------|
||-------------------------------------------------------|-------------|
||-------------------------------------------------------|-------------|
||o-0----------------6-5-----4-5-------6-5-4-5-0---------|--------6-5--|
||--0-0-0-0-0-0-0-0--6-5-0-0-4-5-0-0-0-6-5-4-5-0-0-0-0-0-|-0-0-0--6-5-0|


  PM    PM|                   PM----------|      PM|     PM--|           PM
|---------------------------|----------------------------------------------|
|---------------------------|----------------------------------------------|
|---------------------------|----------------------------------------------|
|---------------------------|----------------------------------------------|
|---4-5-----12h13p12-9-12-0-|----------------6-5-----4-5-------6-5-4-5-0---|
|-0-4-5-0-0---------------0-|-0-0-0-0-0-0-0--6-5-0-0-4-5-0-0-0-6-5-4-5-0-0-|


  PM--------|      PM                               PM--------------------|
|-------------------------------|---------------||--------------------------|
|-------------------------------|--------------o||--------------------------|
|-------------------------------|---------------||--------------------------|
|-------------------------------|---------------||--------------------------|
|--------------6-5---12h13p12-9-|-12-8h9p8-6-9-o||--------------------------|
|-0-0-0-0-0-0--6-5-0------------|---------------||--5-5-5-5-5-5-5-5-5-5-5-5-|


  PM--------------------|             PM----------------------------|
|-----------------------------------|----------------------------------|
|-----------------------------------|----------------------------------|
|-----------------------------------|----------------------------------|
|-----------------------------------|----------------------------------|
|-----------------------------------|----------------------------------|
|-5-5-5-5-5-5-5-5-5-5-5-5-6h8p6-5-6-|-5-5-5-5-5-5-5-5-5-5-5-5-5-5-5-5--|


  PM----------|        PM--------------------------------------------|
|--------------------------|---------------------------------|---------|
|--------------------------|---------------------------------|---------|
|--------------------------|---------------------------------|---------|
|--------------------------|---------------------------------|---------|
|----------------9-8-6-----|---------------------------------|---------|
|-5-5-5-5-5-5-5--9-8-6-5-5-|-5-5-5-5-5-5-5-5-5-5-5-5-5-5-5-5-|-5-5-5-5-|


  PM|           PM--------------------------------------------|
|---------------------------------|------------------------------------|
|---------------------------------|------------------------------------|
|---------------------------------|------------------------------------|
|---------------------------------|------------------------------------|
|---------------------------------|------------------------------5-6-5-|
|-5-5-6h8p6-5-6-5-5-5-5-5-5-5-5-5-|-5-5-5-5-5-5-5-5-5-5-5-5-5-5--5-6-6-|


        PM------|   PM---|   PM--|   PM--|   PM--|   PM----|   PM--|
|--------------------------------------------------------|------------|
|--------------------------------------------------------|------------|
|--------------------------------------------------------|------------|
|--------------------------------------------------------|------------|
|-9-8-6--------------------------------------------------|------------|
|-9-8-6-0-0-0-0-0---0-0--0---0-0-0---0-0-0---0-0-0---0-0-|-0---0-0-0--|


  PM------|                   PM--|        PM----|    PM--------|
|-------------------------------------|---------------------|--------|
|-------------------------------------|---------------------|--------|
|-------------------------------------|---------------------|--------|
|-------------------------------------|---------------------|--------|
|-------------------------------------|-3----------6--------|--------|
|-0-0-0-0-0---0-0-0---0-0-0---0-0-0-0-|-3--0-0-0-0-6--0-0-0-|-0-0----|

[ Tab from: http://www.guitaretab.com/a/as-i-lay-dying/93508.html ]
  PM--|   PM--|   PM--|   PM--|     PM--|   PM--|   PM------|
|---------------------------------|-----------------------------|----------|
|---------------------------------|-----------------------------|----------|
|---------------------------------|-----------------------------|----------|
|---------------------------------|-----------------------------|----------|
|---------------------------------|-----------------------------|----------|
|-0-0-0---0-0-0---0-0-0---0-0-0---|-0-0-0---0-0-0---0-0-0-0-0---|-0-0-0----|


          PM--|      PM----|        PM------|   PM--|     PM--|   PM--|
|-------------------------------||----------------------|------------------|
|-------------------------------||o---------------------|------------------|
|-------------------------------||----------------------|------------------|
|-------------------------------||----------------------|------------------|
|-----------------3-----------6-||o---------------------|------------------|
|-0-0-0---0-0-0-0-3--0-0-0-0--6-||--0-0-0-0-0---0-0-0---|-0-0-0---0-0-0----|


  PM--|   PM--|   PM--|
|--------------------------||
|-------------------------o||
|--------------------------|| REPEAT 3X
|--------------------------||
|-------------------------o||
|-0-0-0---0-0-0---0-0-0----||


  PM------|   PM--|   PM--|    PM--|      PM----|
|-----------------------------------------------------|
|-----------------------------------------------------|
|-----------------------------------------------------|
|-----------------------------------------------------|
|--------------------------------------3----------6---|
|-0-0-0-0-0---0-0-0---0-0-0----0-0-0-0-3--0-0-0-0-6---|


  PM------|   PM--|   PM--|     PM--|   PM--|   PM--|   PM--|
|-----------------------------|------------------------------------|
|-----------------------------|------------------------------------|
|-----------------------------|------------------------------------|
|-----------------------------|------------------------------------|
|-----------------------------|------------------------------------|
|-0-0-0-0-0---0-0-0---0-0-0---|-0-0-0---0-0-0---0-0-0---0-0-0------|


  PM------|   PM--|   PM--|     PM--|      PM----|
|-----------------------------|-------------------------|
|-----------------------------|-------------------------|
|-----------------------------|-------------------------|
|-----------------------------|-------------------------|
|-----------------------------|---------3----------6----|
|-0-0-0-0-0---0-0-0---0-0-0---|-0-0-0-0-3--0-0-0-0-6----|


  PM------|   PM--|   PM--|     PM--|   PM--|   PM--|   PM--|
|-----------------------------|------------------------------------|
|-----------------------------|------------------------------------|
|-----------------------------|------------------------------------|
|-----------------------------|------------------------------------|
|-----------------------------|------------------------------------|
|-0-0-0-0-0---0-0-0---0-0-0---|-0-0-0---0-0-0---0-0-0---0-0-0------|


  PM------|   PM--|   PM--|     PM--|      PM----|      PM--|      PM----|
|-----------------------------|-----------------------|------------------------|
|-----------------------------|-----------------------|------------------------|
|-----------------------------|-----------------------|------------------------|
|-----------------------------|-----------------------|------------------------|
|-----------------------------|---------3----------6--|---------3----------6---|
|-0-0-0-0-0---0-0-0---0-0-0---|-0-0-0-0-3--0-0-0-0-6--|-0-0-0-0-3--0-0-0-0-6---|


SORRY BUT I DIDNíT TAB OUT 1:02-1:56




PM-------------------------------|
|---------------------------------|
|---------------------------------|
|---------------------------------| REPEAT ACOUPLE OF TIMES
|---------------------------------|
|-4-4-4-4-4-4-4-4-4-4-4-4-4-4-4-4-|
|-4-4-4-4-4-4-4-4-4-4-4-4-4-4-4-4-|



NOW JUST REPEAT THE INTRO SOME PARTS 
OF THE INTRO



         PM------|
|------------------------------------------|
|------------------------------------------|
|--8--8--8--8--8--8--8--8-7-7---6---7----8-|
|-10-10-10-10-10-10-10-10-9-9-x-8-x-9-x-10-|
|------------------------------------------|
|------------------------------------------|


      PM------|                     PM|
|------------------------|------------------|
|------------------------|------------------|
|--8--8--8--8--8--8--8-7-|-7--9--9--9--9----|
|-10-10-10-10-10-10-10-9-|-9-11-11-11-11----|
|------------------------|------------------|
|------------------------|------------------|


NOW JUST REPEAT THAT TIL TIL IT FADES
Related for Within Destruction tab